Sum 41 - Im Not The One Chords & Tabs

 

Im Not The One Chords & Tabs

Sum 41 Chords & Tabs

Version: 2 Type: Tab 0 ratings
1 star 2 stars 3 stars 4 stars 5 stars
comments

Im Not The One Tab

Tabbed by Zach Thomas again, I'll have the whole song soon...once i get a weekend off from Highschool!
[ Tab from: http://www.guitartabs.cc/tabs/s/sum_41/im_not_the_one_tab_ver_2.html ]
Guitar two (play 2 times then while guitar one plays)   (just strum this part)
e|---------------------------------------------|-----------------------------|
B|---------------------------------------------|-----------------------------|
G|-6~-6~-xx----------8~-8~-xx------------------|-6---------8-----------------|
D|-6~-6~-xx-7~-7~-xx-8~-8~-xx-9~-9~-xx---------|-6----7----8----9------------|
A|-4~-4~-xx-7~-7~-xx-6~-6~-xx-9~-9~-xx---------|-4----7----6----9------------|
E|----------5~-5~-xx----------7~-7~-xx---------|------5---------7------------|
                                               |                             |
Guitar one                                     | repeat 4 times              |
e|---4---------4---------4---4---------4-------|-4---4---------4---4-9-------|
B|-----5---5-----5---5-----5---5-----5---5---5-|---5---5---5-----5-----5-----|
G|-6-----6---6-----6---6---------6-6-------6---|---------6---6---------------|
D|---------------------------------------------|-----------------------------|
A|---------------------------------------------|-----------------------------|
E|---------------------------------------------|-----------------------------|
Comments