Sum 41 - Hell Song Chords & Tabs

 

Hell Song Chords & Tabs

Sum 41 Chords & Tabs

Version: 8 Type: Tab 2 ratings
1 star 2 stars 3 stars 4 stars 5 stars
comments

Hell Song Tab

   
The hell song
Sum 41
tuning: Eb Ab Db Gb Bb Eb

~------------------------------------------------------------~ x2
~------------------------------------------------------------~
~------------------------------------------------------------~ 
~-------0--2----------0--2------------0--2-----3-3-2-2-0-----~
~-0--3-------3-----3-------3----3--3-------------------------~
~----------------1-----------------------------3-------------~
second time second guitar play over main rift:
~-------------------------------------------------------------~
~-------------------------------------------------------------~
~-2--------------------------------5--------------------------~
~-2--------------3-----------------3-----------5--------------~
~-0--------------3-----------------3-----------5--------------~
~ ---------------1-----------------------------3--------------~
         pm->->->->->->->->->->->->->->->->->->->->->->->->->->->->
~--------------------------------------------------------------------~x2
~--------------------------------------------------------------------~
~-2-2-2-2-2-2-2-2-------------------5-5-5-5-5-5-5-5------------------~
~-2-2-2-2-2-2-2-2--3-3-3-3-3-3-3-3--5-5-5-5-5-5-5-5--5-5-5-5-5-5-5-5-~
~-0-0-0-0-0-0-0-0--3-3-3-3-3-3-3-3--3-3-3-3-3-3-3-3--5-5-5-5-5-5-5-5-~
~------------------1-1-1-1-1-1-1-1-------------------3-3-3-3-3-3-3-3-~

~-----------------------------------------------------------------------~
~-----------------------------------------------------------------------~
~------2-------2--------------------------5-------5---------------------~
~------2-------2----------3-------3-------5-------5---------------------~
~-0-0--0--0-0--0----------3-------3--3-3--3--3-3--3----------5----5--5--~
~--------------------1-1--1--1-1--1---------------------3-3--3--3-3--3--~
[ Tab from: http://www.guitartabs.cc/tabs/s/sum_41/hell_song_tab_ver_8.html ]
Main rift x2

solo:
~-------------------0--------------------0----------------------------------------~
~-8b10-10-10-10-10----8b10-10-10-10-10-----6b8-8-8-8-8-6-5-3--5-5h6p5-3h5p3-1h3p1-~
~---------------------------------------------------------------------------------~
~---------------------------------------------------------------------------------~
~---------------------------------------------------------------------------------~
~---------------------------------------------------------------------------------~

~------------------------------------------------------------------------------~
~-5--6--8--10--8--6--5--6--3----------------10--12-12--13-13--15-15-13-15------~
~-5--7--9--10--9--7--5--7--4--5~7~9~10-----------------------------------------~
~------------------------------------------------------------------------------~
~------------------------------------------------------------------------------~
~------------------------------------------------------------------------------~

~-------------------------------------------------------15-------~
~-15b17-17-17-17-17rb15p13-15b17-17rb15-13-15p13--15b17---17rb15-~
~----------------------------------------------------------------~
~----------------------------------------------------------------~
~----------------------------------------------------------------~
~----------------------------------------------------------------~

~-----------15-------------------------------------------------------------~
~-13--15b17---17rb15-13--12-12h13p12---------------------------------------~
~--------------------------------------14-12----12h14p12-------------------~
~---------------------------------------------14-------------14-12--12-----~
~-----------------------------------------------------------------15--15-15~
~--------------------------------------------------------------------------~
Comments