Sum 41 - Hell Song Chords & Tabs

 

Hell Song Chords & Tabs

Sum 41 Chords & Tabs

Version: 5 Type: Tab 1 rating
1 star 2 stars 3 stars 4 stars 5 stars
comments

Hell Song Tab

   
-------------------------------------------------------------------------------
			     Sum 41 - Hell Song
-------------------------------------------------------------------------------

By: Glen Rosenthal
this is a kickass song but the solo is really hard and this is only
my 5th tab, so its probably not perfect


intro
e|------------------------------------------------------|
B|------------------------------------------------------|
G|------------------------------------------------------| 3x
D|-------1--------1---------1-----2211------------------|
A|---2-4--2---2-4---2-2-2-4---2-------44----------------|
E|-4--------0-------------------2-----------------------|

on 2nd time guitar 2 comes in playing this
e|------------------------------------------------------|
B|------------------------------------------------------|
G|-------------------44444444---------------------------|
D|-66666666-22222222-44444444-44444444------------------|
A|-66666666-22222222-22222222-44444444------------------|
E|-44444444-00000000----------22222222------------------|

verse
e|------------------------------------------------------|
B|------------------------------------------------------|
G|-------------------44444444---------------------------|
D|-66666666-22222222-44444444-44444444------------------| 2x
A|-66666666-22222222-22222222-44444444------------------|
E|-44444444-00000000----------22222222------------------|
p.m...................................

verse part 2
e|------------------------------------------------------|
B|------------------------------------------------------|
G|-----------------4444444------------------------------| 2x
D|-6666666-2222222-4444444-44444444---------------------|
A|-6666666-2222222-2222222-44444444---------------------|
E|-4444444-0000000---------22222222---------------------|
   xx xxx  xx xxx  xx xxx  xx xx x  

chorus
e|------------------------------------------------------|
B|------------------------------------------------------|
G|-------------------44444444---------------------------| 2x
D|-66666666-22222222-44444444-44444444------------------|
A|-66666666-22222222-22222222-44444444------------------|
E|-44444444-00000000----------22222222------------------|

guitar 2 plays
e|------------------------------------------------------|
B|------------------------------------------------------|
G|------------------------------------------------------| 2x
D|-------1--------1---------1-----2211------------------|
A|---2-4--2---2-4---2-2-2-4---2-------44----------------|
E|-4--------0-------------------2-----------------------|

Back to verse part 2
e|------------------------------------------------------|
B|------------------------------------------------------|
G|-----------------4444444------------------------------|4x
D|-6666666-2222222-4444444-44444444---------------------|
A|-6666666-2222222-2222222-44444444---------------------|
E|-4444444-0000000---------22222222---------------------|
   xx xxx  xx xxx  xx xxx  xx xx x  

chorus 2
e|------------------------------------------------------|
B|------------------------------------------------------|
G|------------9-999999-4-444444-------------------------|
D|-646-666666-9-999999-4-444444-4-44444-----------------| 4x
A|-646-666666-7-777777-2-222222-4-44444-----------------|
E|-424-444444-------------------2-22222-----------------|
[ Tab from: http://www.guitartabs.cc/tabs/s/sum_41/hell_song_tab_ver_5.html ]
post-chorus (anymore.....)
e|------------|
B|------------|
G|------------|
D|-66-66-66-6-|
A|-66-66-66-6-|
E|-44-44-44-4-|

solo (probably not 100% correct, but good enough for me)
e|-3/4-4444-3/4-4444-1/2-222220------------|
B|-----------------------------42----------|
G|-----------------------------------------|
D|-----------------------------------------|
A|-----------------------------------------|
E|-----------------------------------------|

e|-----------------------------------------|
B|-4h5-2-2h4-0-0h2----24542524-24----------|
G|-----------------3-4--------4------------|
D|-----------------------------------------|
A|-----------------------------------------|
E|-----------------------------------------|

e|------------------------------------------------------|
B|-------------2h4p2h4p2h4-4h5p4h5p4h5-5h7p5h7p5h7------|
G|-3h4p3h4p3h4------------------------------------------|
D|------------------------------------------------------|
A|------------------------------------------------------|
E|------------------------------------------------------|

e|-4-66-77-997--11-11-11-11-11p9-----9-11-11b---9-------|
B|-4-66-77-997-7-----------------12-9---------12-12-----|
G|------------------------------------------------------|
D|------------------------------------------------------|
A|------------------------------------------------------|
E|------------------------------------------------------|

e|-11-14-11---------11-14-11---------------------------------|
B|----14---14-12-14----14---14-12-12-11-11-12----------------|
G|--------------------------------------------11h13p11-13-11-|
D|-----------------------------------------------------------|
A|-----------------------------------------------------------|
E|-----------------------------------------------------------|

e|------------------------------------------------------|
B|------------------------------------------------------|
G|---------------------------------------13-11-13-13----|
D|-11h13p11-9h11p9-9h11-9-9~-------------13-11-13-13----|
A|---------------------------------------11--9-11-11----|
E|------------------------------------------------------|

verse 3
e|----------------------------------------|-end on-|
B|----------------------------------------|--------|
G|-------------------44444444-------------|--------|
D|-66666666-22222222-44444444-44444444----|---4~---|
A|-66666666-22222222-22222222-44444444----|---4~---|
E|-44444444-00000000----------22222222----|---2~---|
   xxxxxxxx xxxxxxxx xxxxxxxx xxxxxxxx

chorus 3
e|------------------------------------------------------|
B|------------------------------------------------------|
G|------------9-999999-4-444444-------------------------| 4x
D|-646-666666-9-999999-4-444444-4-44444-----------------|
A|-646-666666-7-777777-2-222222-4-44444-----------------|
E|-424-444444-------------------2-22222-----------------|

in background guitar 2 plays 
e|----------------|
B|----------------|
G|-1--------------|
D|--41------------|
A|----421---------|
E|-------24-------|

play chorus until end (guitar 2 plays intro in background)
e|------------------------------------------------------|
B|------------------------------------------------------|
G|-------------------44444444---------------------------|
D|-66666666-22222222-44444444-44444444------------------|
A|-66666666-22222222-22222222-44444444------------------|
E|-44444444-00000000----------22222222------------------|

end on
e|----|
B|----|
G|----|
D|-6~-|
A|-6~-|
E|-4~-|
Comments