Sum 41 - Hell Song Chords & Tabs

 

Hell Song Chords & Tabs

Sum 41 Chords & Tabs

Version: 3 Type: Bass Tab 0 ratings
1 star 2 stars 3 stars 4 stars 5 stars
comments

Hell Song Bass Tab

Riff #1
G---------------------------------------------I 
D---------------------------------------------I 
A------------------------22222222-------------I
E---44444444---00000000------------22222222---I

Riff #2
G---------------------------------------------I
D----------------------------------44444444---I
A------------------------22222222-------------I 
E---44444444---00000000-----------------------I

Riff #3
G-------------------------------------------------------I
D----------------------------------8\0---2/4-444--------I
A------------------------22222222-----------------4-2---I
E---44444444---00000000---------------------------------I

Riff #4
G------------------------------------------------I
D------------------------------------------------I
A--------------------4--6---22222222-------------I
E---44444444---0000-------------------22222222---I

Riff #5
G------------------------------------------------I
D------------------------------------------------I
A------------777777--4--6---22222222-------------I
E---4444444---------------------------22222222---I


Bridge
G------------------------I
D------------------6\0---I
A------------------------I
E---44--44--44-----------I
[ Tab from: http://www.guitartabs.cc/tabs/s/sum_41/hell_song_btab_ver_3.html ]
Guitar Solo
G----------------------44444444---------------------------------44444444--66666666-----------I
D--------------------------------44444444-----------------------------------------4 LET RING-I
A-----------------4-2------------------------------------------------------------------------I
E-4-44--4--0-0-0---------------------------44444444---00000000-------------------------------I

Bridge #2
G-------------I
D-------------I
A-------------I
E---4--2--4---I

Riff #6
G---------------------------------------------------I
D---------------------------------42--1------------I
A-----------------------22222222----------4--2--1---I
E---44444444--00000000------------------------------I

Riff #7
G-----------------------------------------------------I
D--------------22222222------------4--2--1------------I
A------------------------22222222-----------4--2--1---I
E---44444444------------------------------------------I

End
G----------------I
D----------------I
A----------------I
E---4-Let Ring---I


Riff #1     x4
Riff #2     x2
Riff #1     x4
Riff #2     x1
Riff #3     x1
Riff #1     x2
Riff #4     x1
Riff #5     x1
Bridge      x1
Riff #1     x1
Riff #2     x1
Guitar Solo x1
Bridge      x1
Bridge      x1
Riff #6     x2
Riff #7     x2
Riff #1     x4
End         x1
Comments