Sum 41 - Heart Attack Live Chords & Tabs

 

Heart Attack Live Chords & Tabs

Sum 41 Chords & Tabs

Version: 1 Type: Tab 0 ratings
1 star 2 stars 3 stars 4 stars 5 stars
comments

Heart Attack Live Tab

   
#----------------------------------PLEASE NOTE--------------------------------#
#This file is the author's own work and represents their interpretation of the#
#song. You may only use this file for private study, scholarship, or research.#
#-----------------------------------------------------------------------------#
#-- File created with Instab - http://www.pconline.com/~smcarey/instab.html --#
#-----------------------------------------------------------------------------#

Author/Artist: Sum 41
Title: Heart Attack (complex)
Album: All Killer No Filler
Transcribed by: John Cameron
Email: gutherallvenomyell@hotmail.com

Not many notes, this time, but there are a few things
to remember:

1) This tab is rather strict in which guitar does what,
becasue otherwise there will be problems. I can't
stress that enough. The lead guitar is the standard-
tuned guitar (Guitar 1), and the guitar in Drop-D is 
the rhythm guitar (Guitar 2).
2) This is mostly based on what I saw live when 
Sum 41 played at the Agridome in my city. The only
thing I don't know for certain is the use of the
standard-tuned guitar instead of a Drop-D. However,
the point is that it works, and it does sound like what
they played live.

That's all. Cheers!

 Verse

 Guitar 1
|----------------------------------------------------------------------------
|----------------------------------------------------------------------------
|-------9---------------9---------------9---------------9--------------------
|---9-------9---9---9-------9---9---9-------9---9---7-------7---7------------
|-7---7---7---7---6---6---6---6---0---0---0---0---0---0---0---0--------------
|----------------------------------------------------------------------------
                                                                              
 Guitar 2
 Part A
|----------------------------------------------------------------------------
|----------------------------------------------------------------------------
|----------------------------------------------------------------------------
|-----------------1-1-1-1-1-1-1-1-2-2-2-2-2-2-2-2-2-2-2-2-4-4-4-4------------
|-2-2-2-2-2-2-2-2-2-2-2-2-2-2-2-2-4-4-4-4-4-4-4-4-4-4-4-4-2-2-2-2------------
|-2-2-2-2-2-2-2-2------------------------------------------------------------
  x x x x x x x x x x x x x x x x x x x x x x x x x x x x x x x x
                                                                             
 Part B
|----------------------------------------------------------------------------
|----------------------------------------------------------------------------
|----------------------------------------------------------------------------
|-----------------1-1-1-1-1-1-1-1-2-2-2-2-2-2-2-2-4--4--4--4-----------------
|-2-2-2-2-2-2-2-2-2-2-2-2-2-2-2-2-4-4-4-4-4-4-4-4-2--2--2--2-----------------
|-2-2-2-2-2-2-2-2------------------------------------------------------------
  x x x x x x x x x x x x x x x x x x x x x x x x                             

  Chorus

 Guitar 2
|----------------------------------------------------------------------------
|----------------------------------------------------------------------------
|----------------------------------------------------------------------------
|-2---2---2--2-2--2-0---0---7---7--------------------------------------------
|-2---2---2--2-2--2-0---0---7---7--------------------------------------------
|-2---2---2--2-2--2-0---0---7---7--------------------------------------------
                                                                              
 Guitar 1
|----------------------------------------------------------------------------
|----------------------------------------------------------------------------
|-------------------4---4---2---2--------------------------------------------
|-2---2---2--2-2--2-4---4---2---2--------------------------------------------
|-2---2---2--2-2--2-2---2---0---0--------------------------------------------
|-0---0---0--0-0--0----------------------------------------------------------
                                                                              
 Post-Chorus
[ Tab from: http://www.guitartabs.cc/tabs/s/sum_41/heart_attack_live_tab.html ]
 Both Guitars
 Part One
|----------------------------------------------------------------------------
|----------------------------------------------------------------------------
|-9---9---9-9-9-9--9---9---9-9-9-9--6---6---6-6-6-6--------------------------
|-x---x---x-x-x-x--x---x---x-x-x-x--x---x---x-x-x-x--------------------------
|-7---7---7-7-7-7--6---6---6-6-6-6--4---4---4-4-4-4--------------------------
|----------------------------------------------------------------------------
                                                                              
 Guitar 2
 Part 2            Part 3
|-----------------|----------------------------------------------------------
|-----------------|----------------------------------------------------------
|-----------------|----------------------------------------------------------
|-----------------|----------------------------------------------------------
|-----------------|----------------------------------------------------------
|-6-7-6-7-9-7-9-7-|-6-7-6-7-9------------------------------------------------
                                                                              
 Verse

 Guitar 2
 Part C
|----------------------------------------------------------------------------
|----------------------------------------------------------------------------
|----------------------------------------------------------------------------
|-----------------1-1-1-1-1-1-1-1-2--2-4--4-2--2-4-4-4-4---------------------
|-2-2-2-2-2-2-2-2-2-2-2-2-2-2-2-2-4--4-2--2-4--4-2-2-2-2---------------------
|-2-2-2-2-2-2-2-2------------------------------------------------------------
  x x x x x x x x x x x x x x x x 
  
 Bridge/Outro

 Guitar 1
|----------------------------------------------------------------------------
|----------------------------------------------------------------------------
|-9-9--9-9--9-9--9-9--9-9-9-9------------------------------------------------
|-x-x--x-x--x-x--x-x--x-x-x-x------------------------------------------------
|-7-7--7-7--7-7--7-7--7-7-7-7------------------------------------------------
|----------------------------------------------------------------------------
                                                                              
 Guitar 2
|----------------------------------------------------------------------------
|----------------------------------------------------------------------------
|----------------------------------------------------------------------------
|-2-2--0-0--7-7--0-0---------------------------------------------------------
|-2-2--0-0--7-7--0-0---------------------------------------------------------
|-2-2--0-0--7-7--0-0--6-7-6-7------------------------------------------------
                                                                              
 Guitar 2 ends bridge with this
|----------------------------------------------------------------------------
|----------------------------------------------------------------------------
|-9\-------------------------------------------------------------------------
|-x\-------------------------------------------------------------------------
|-7\-------------------------------------------------------------------------
|----------------------------------------------------------------------------
                                                                              
 Guitar 1 ends song with this
|----------------------------------------------------------------------------
|----------------------------------------------------------------------------
|-9--------------------------------------------------------------------------
|-x--------------------------------------------------------------------------
|-7--------------------------------------------------------------------------
|----------------------------------------------------------------------------
                                                                              
 Guitar 2 ends song with this
|----------------------------------------------------------------------------
|----------------------------------------------------------------------------
|----------------------------------------------------------------------------
|-2--------------------------------------------------------------------------
|-2--------------------------------------------------------------------------
|-2--------------------------------------------------------------------------
                                                                              

Breakdown Chart:

             |  Guitar One                |  Guitar 2
-------------|----------------------------|---------------------------
Verse        |  2x Intro                  |  
             |  2x w/o Guitar 2           |
             |  2x w/  Guitar 2           |  1x Part A, 1x Part B
-------------|----------------------------|-----------------------------
Chorus       |  4x    			  |  4x
-------------|----------------------------|-----------------------------
Post-Chorus  |  Part 1			  |  Part 1
	     | 	                          |  Part 2
	     |  Part 1			  |  Part 1
             |				  |  Part 3
-------------|----------------------------|-----------------------------
Verse        |  2x w/o Guitar 2	          |
	     |  2x w/  Guitar 2	          |  1x Part A, 1x Part C
	     |  (Quiet while Guitar 2     |
             |  finishes Part C)          |
-------------|----------------------------|-----------------------------
Chorus	     |  4x			  |  4x
-------------|----------------------------|----------------------------
Bridge	     |  1x w/o Guitar 2	          |
	     |  4x w/  Guitar 2		  |  4x
-------------|----------------------------|----------------------------
Verse	     |  2x w/o Guitar 2	          |
	     |  2x w/  Guitar 2		  |  1x Part A, 1x Part C
	     |  (Quiet while Guitar 2	  |
             |  finishes Part C)	  |
-------------|----------------------------|----------------------------
Chorus	     |  4x			  |  4x
-------------|----------------------------|----------------------------
Outro        |				  |  2x w/o Guitar 1
	     |  2x			  |  2x w/  Guitar 1
-------------|----------------------------|----------------------------
Ending Note  |  1x. Duh.		  |  1x. Duh.
Comments