Sum 41 - Heart Attack Chords & Tabs

 

Heart Attack Chords & Tabs

Sum 41 Chords & Tabs

Version: 2 Type: Bass Tab 0 ratings
1 star 2 stars 3 stars 4 stars 5 stars
comments

Heart Attack Bass Tab

I took this tab from Bassman02 on mxtabs.net, so people could find it easier. i was 
all over for it.

credit to you bassman02! nice work


rest for 3 measures plus 3 beats then come in with:
G:|---------------------|     G:|-----------------------------------|
D:|---------11----13----|     D:|----8/9-11------------------9-8----|
A:|-4/-9----------------| x1  A:|-9-----------11-----------9-----11-| x2
E:|---------------------|     E:|-----------------9-11-7------------|

G:|--------------------------------------------------------------------|
D:|--------------------------------------------------------------------|
A:|---------4444-6666-------------------------4444-6666----------------| x1
E:|-22222222---------7777777777777799-22222222---------777777779-9-9-9-|

G:|----------------------------------------------------------------|
D:|-----------------------------8787------------8778---------------|
A:|-------------212---------7676----------------------------4-22/--| x1
E:|-2121212-0-0-----2121212---------2121212-0-0-----2121212--------|

G:|-----------------------------     G:|-------------------------------------|
D:|-----9868----9868----9868----     D:|-----9868----9868----9868------------|
A:|-9-9-------------6-6--------8 x1  A:|-9-9-------------6-6-----------------| x1
E:|---------9-9-------------679-     E:|---------9-9-------------67679----9\-|

G:|-----------------------|
D:|-----------------------|
A:|------4--6--2----2--4--| x2
E:|-2---------------------|
[ Tab from: http://www.guitartabs.cc/tabs/s/sum_41/heart_attack_btab_ver_2.html ]
G:|---------------------------------------------------------------------------|
D:|----------------------------------------------------------------433--------|
A:|---------4444-6666-22222222-44444446--------4444-6666-22222222-4---4464-2--| x1
E:|-22222222---------------------------22222222-------------------------------|

G:|----------------------------------------------------------------------------|
D:|-------------------------------------8787------------8778-------------------|
A:|-4-4-4-4-------------212---------7676----------------------------4-22/------| x1
E:|---------2121212-0-0-----2121212---------2121212-0-0-----2121212--------22--|

G:|-----------|     G:|--------------------------|
D:|-----------|     D:|--------------------------|
A:|-----------| x1  A:|------22------------------| x3
E:|-----X\-X\-|     E:|-22-00---00-4643----------|

G:|--------------------|
D:|-44-22-----------4\-|
A:|-------55-44--------| x1   rest for 14 beats (i think)
E:|-------------6764---|

G:|----------------------------------------------------------------------|
D:|---------11----13---------8/9-11---------------9-8-----8/9-11---------|
A:|-4/-9--------------------9--------11---------9-----11-9--------11-----|  x1
E:|-------------------------------------9-11-7----------------------9-11-|

G:|--------------------------------|
D:|--------------------------------|
A:|--------------------------------| x1
E:|-77777777-99999999-7----98989\--|

G:|----------------------------------------------------------------|
D:|-----------------------------8787------------8778---------------|
A:|-------------212---------7676----------------------------4-22/--| x1
E:|-2121212-0-0-----2121212---------2121212-0-0-----2121212--------|

Ending:
G:|--------|     G:|-------------------|
D:|--------|     D:|-------------------|
A:|-4-22/--| x1  A:|-------22----------| x2
E:|--------|     E:|-22-00----00-6764--|

G:|--------------------------------------|
D:|-44-22-----------44-22----------------|
A:|-----------------------66-44----------| x1
E:|-------00-00-6764------------6764-2~--|
Comments