Sum 41 - Handle This Chords & Tabs

 

Handle This Chords & Tabs

Sum 41 Chords & Tabs

Version: 8 Type: Tab 0 ratings
1 star 2 stars 3 stars 4 stars 5 stars
comments

Handle This Tab

Band:Sum 41
Song:Handle This
Album:All Killer No Filler

I noticed that all the solos on this site for this song are all a little off, so I tried 
it myself...

E:-------------14-14h15p14-----------------------14-14h15p14
B:-------17-15-------------15--------15h17-15h17------------
G:-11-14----------------------16--16------------------------
D:----------------------------------------------------------
A:----------------------------------------------------------
E:----------------------------------------------------------
[ Tab from: http://www.guitartabs.cc/tabs/s/sum_41/handle_this_tab_ver_8.html ]
E:----------------------------------------------------------
B:-15-----------------10-10------10-10-10h12p10-------------
G:----16--14-12-11h12-----11h12----------------10h12p11-----
D:----------------------------------------------------------
A:----------------------------------------------------------
E:----------------------------------------------------------

E:----------------------------------------------------------
B:----------------------------------------------------------
G:-10h12p11-------------------------------------------------
D:----------9-7---------------------------------------------
A:----------------------------------------------------------
E:----------------------------------------------------------

I couldnt figure out the short picking part at the end, but I pretty sure it is correct. 
This is my first tab so tell me what you think...
Comments