Sum 41 - Handle This Chords & Tabs

 

Handle This Chords & Tabs

Sum 41 Chords & Tabs

Version: 6 Type: Tab 0 ratings
1 star 2 stars 3 stars 4 stars 5 stars
comments

Handle This Tab

since no one else had the whole solo for handle this, i decided 2 finally do it 4 all the people who want it..by Neo man:

e:-------------14-14h15h14-------------------14-14h15h14----
B:-------17-15-------------15----15h17h15h17-------------15-
G:-11-14----------------------16----------------------------
D:----------------------------------------------------------
A:----------------------------------------------------------
E:----------------------------------------------------------
[ Tab from: http://www.guitartabs.cc/tabs/s/sum_41/handle_this_tab_ver_6.html ]
e:---------------------------------------------------------
B:---------------10-10------10-10-10h12h10-----------------
G:-16-14-12-11h12------11h12---------------12p10---12p10---
D:-----------------------------------------------12------7-
A:---------------------------------------------------------
E:---------------------------------------------------------

e:------------------
B:------------------
G:-----7--------7---
D:-7-7---7--7-7---7-
A:------------------
E:------------------

e:--------------------------------------
B:-----10-----10---10---10-10-----------
G:-7-7----7-7----7----7-----------------
D:--------------------------------------
A:--------------------------------------
E:--------------------------------------

well thats it and it, and is probably the only one thats eazy 2 find on the net. email me 4 questions

bmxfreak48@hotmail.com



Comments