Sum 41 - Handle This Chords & Tabs

 

Handle This Chords & Tabs

Sum 41 Chords & Tabs

Version: 13 Type: Tab 0 ratings
1 star 2 stars 3 stars 4 stars 5 stars
comments

Handle This Tab

e|--2---5---12---10---14---15----14---10---7---10---12---10---12---14-
B|--------------------------------------------------------------------
G|--------------------------------------------------------------------
D|--------------------------------------------------------------------
E|--------------------------------------------------------------------
[ Tab from: http://www.guitartabs.cc/tabs/s/sum_41/handle_this_tab_ver_13.html ]
e|--15--14---10---7---5---3---2---3---5---5---2---3---5---5---5---7---
B|--------------------------------------------------------------------
G|--------------------------------------------------------------------
D|--------------------------------------------------------------------
A|--------------------------------------------------------------------
E|--------------------------------------------------------------------

e|---5---3---2---0---3---2---0---------------------------------------
B|-------------------------------3------------------------------------
G|--------------------------------------------------------------------
D|--------------------------------------------------------------------
A|--------------------------------------------------------------------
E|--------------------------------------------------------------------
Comments