Sum 41 - Grab The Devil By The Horns Chords & Tabs

 

Grab The Devil By The Horns Chords & Tabs

Sum 41 Chords & Tabs

Version: 1 Type: Tab 0 ratings
1 star 2 stars 3 stars 4 stars 5 stars
comments

Grab The Devil By The Horns Tab

Sum 41
"Grab The Devil By The Horns And Fuck Him Up The Ass"
Transcribed by George Kemper (onehitwonderland@hotmail.com)

Guitar 1 (0:00 - 0:05)
|-0-2-3-5-3-2-0---0-2-3-5-3-2-0---0-2-3-5-3-2-0---0-2-3-5-3-2-0------------------|
|---------------3---------------3---------------3---------------3----------------|
|--------------------------------------------------------------------------------|
|--------------------------------------------------------------------------------|
|--------------------------------------------------------------------------------|
|--------------------------------------------------------------------------------|


Guitar 1 (0:06-0:09)
|-0-2-3-5-3-2-0---0-2-3-5-3-2-0---0-2-3-5-3-2-0----------------------------------
|---------------3---------------3---------------3--------------------------------|
|--------------------------------------------------------------------------------|
|--------------------------------------------------------------------------------|
|--------------------------------------------------------------------------------|
|--------------------------------------------------------------------------------|

Guitar 2 (0:06-0:08)
|-7-5-7-8-7-5-3-2-7-5-7-8-7-5-3-2-7-5-7-8-7-5-3-2--------------------------------|
|--------------------------------------------------------------------------------|
|--------------------------------------------------------------------------------|
|--------------------------------------------------------------------------------|
|--------------------------------------------------------------------------------|
|--------------------------------------------------------------------------------|


Guitar 1 (0:09-0:10)
|--------------------------------------------------------------------------------|
|--------------------------------------------------------------------------------|
|-------4------------------------------------------------------------------------|
|-5-4-2-4-4-5-2------------------------------------------------------------------|
|-5-4-2-2-4-5-2------------------------------------------------------------------|
|-3-2-0---2-3-0------------------------------------------------------------------|


Guitar 1 (0:11-0:13)
|--------------------------------------------------------------------------------|
|--------------------------------------------------------------------------------|
|-9-------------------7------------------5---------------------------------------|
|-9-------------------7------------------5---------------------------------------|
|-7-------------------5------------------3---------------------------------------|
|--------------------------------------------------------------------------------|

Guitar 2 (0:11-0:13)
|--------------------------------------------------------------------------------|
|--------------------------------------------------------------------------------|
|--------------------------------------------------------------------------------|
|-9-------------------7-------------------5--------------------------------------|
|-7-7-7-7-7-7-7-7-7-7-5-5-5-5-5-5-5-5-5-5-3-3-3-3-3-3-3-3-3-3--------------------|
|--------------------------------------------------------------------------------|


Guitar 1 (0:14-0:15)
|--------------------------------------------------------------------------------|
|--------------------------------------------------------------------------------|
|-------4------------------------------------------------------------------------|
|-5-4-2-4-4-5-2------------------------------------------------------------------|
|-5-4-2-2-4-5-2------------------------------------------------------------------|
|-3-2-0---2-3-0------------------------------------------------------------------|

Guitar 2 (0:14-0:15)
|-3-2-0-7-2-3-0------------------------------------------------------------------|
|--------------------------------------------------------------------------------|
|--------------------------------------------------------------------------------|
|--------------------------------------------------------------------------------|
|--------------------------------------------------------------------------------|
|--------------------------------------------------------------------------------|


Guitar 1 (0:16-0:18)
|--------------------------------------------------------------------------------|
|--------------------------------------------------------------------------------|
|-9-------------------7------------------5---------------------------------------|
|-9-------------------7------------------5---------------------------------------|
|-7-------------------5------------------3---------------------------------------|
|--------------------------------------------------------------------------------|

Guitar 2 (0:16-0:18)
|--------------------------------------------------------------------------------|
|--------------------------------------------------------------------------------|
|--------------------------------------------------------------------------------|
|-9-------------------7-------------------5--------------------------------------|
|-7-7-7-7-7-7-7-7-7-7-5-5-5-5-5-5-5-5-5-5-3-3-3-3-3-3-3-3-3-3--------------------|
|--------------------------------------------------------------------------------|


Guitar 1 (0:20-0:21)
|--------------------------------------------------------------------------------|
|--------------------------------------------------------------------------------|
|-------4------------------------------------------------------------------------|
|-5-4-2-4-4-5-2------------------------------------------------------------------|
|-5-4-2-2-4-5-2------------------------------------------------------------------|
|-3-2-0---2-3-0------------------------------------------------------------------|

Guitar 2 (0:20-0:21)
|-3-2-0-7-2-3-0------------------------------------------------------------------|
|--------------------------------------------------------------------------------|
|--------------------------------------------------------------------------------|
|--------------------------------------------------------------------------------|
|--------------------------------------------------------------------------------|
|--------------------------------------------------------------------------------|


Guitar 1 (0:22-0:24)
|-0-2-3-5-3-2-0---0-2-3-5-3-2-0---0-2-3-5-3-2-0----------------------------------
|---------------3---------------3---------------3--------------------------------|
|--------------------------------------------------------------------------------|
|--------------------------------------------------------------------------------|
|--------------------------------------------------------------------------------|
|--------------------------------------------------------------------------------|
[ Tab from: http://www.guitartabs.cc/tabs/s/sum_41/grab_the_devil_by_the_horns_tab.html ]
Guitar 2 (0:22-0:24)
|--------------------------------------------------------------------------------|
|--------------------------------------------------------------------------------|
|--------------------------------------------------------------------------------|
|-9-------------------7-------------------5--------------------------------------|
|-7-7-7-7-7-7-7-7-7-7-5-5-5-5-5-5-5-5-5-5-3-3-3-3-3-3-3-3-3-3--------------------|
|--------------------------------------------------------------------------------|


Guitar 1 (0:25-0:26)
|--------------------------------------------------------------------------------|
|--------------------------------------------------------------------------------|
|-------4------------------------------------------------------------------------|
|-5-4-2-4-4-5-2------------------------------------------------------------------|
|-5-4-2-2-4-5-2------------------------------------------------------------------|
|-3-2-0---2-3-0------------------------------------------------------------------|

Guitar 2 (0:25-0:26)
|-3-2-0-7-2-3-0------------------------------------------------------------------|
|--------------------------------------------------------------------------------|
|--------------------------------------------------------------------------------|
|--------------------------------------------------------------------------------|
|--------------------------------------------------------------------------------|
|--------------------------------------------------------------------------------|


Guitar 1 (0:28-0:30)
|-0-2-3-5-3-2-0---0-2-3-5-3-2-0---0-2-3-5-3-2-0----------------------------------
|---------------3---------------3---------------3--------------------------------|
|--------------------------------------------------------------------------------|
|--------------------------------------------------------------------------------|
|--------------------------------------------------------------------------------|
|--------------------------------------------------------------------------------|

Guitar 2 (0:28-0:30)
|--------------------------------------------------------------------------------|
|--------------------------------------------------------------------------------|
|--------------------------------------------------------------------------------|
|-9-------------------7-------------------5--------------------------------------|
|-7-7-7-7-7-7-7-7-7-7-5-5-5-5-5-5-5-5-5-5-3-3-3-3-3-3-3-3-3-3--------------------|
|--------------------------------------------------------------------------------|


Guitar 1 (0:31-0:32)
|--------------------------------------------------------------------------------|
|--------------------------------------------------------------------------------|
|-------4------------------------------------------------------------------------|
|-5-4-2-4-4-5-2-Let-Ring---------------------------------------------------------|
|-5-4-2-2-4-5-2------------------------------------------------------------------|
|-3-2-0---2-3-0------------------------------------------------------------------|

Guitar 2 (0:31-0:32)
|-3-2-0-7-2-3-0------------------------------------------------------------------|
|--------------------------------------------------------------------------------|
|--------------------------------------------------------------------------------|
|--------------------------------------------------------------------------------|
|--------------------------------------------------------------------------------|
|--------------------------------------------------------------------------------|

"Yeah!"


Guitar 1 (0:34-0:36)
|--------------------------------------------------------------------------------|
|--------------------------------------------------------------------------------|
|-----4--------------------------------------------------------------------------|
|-5-4-4-4------------------------------------------------------------------------|
|-5-4-2-4------------------------------------------------------------------------|
|-3-2---2------------------------------------------------------------------------|


Guitar 1 (0:37-0:39)
|--------------------------------------------------------------------------------|
|--------------------------------------------------------------------------------|
|--------------------------------------------------------------------------------|
|--------------------------------------------------------------------------------|
|-2-2-2-2-2-2-2-2-2-2-2-2-2-2-2-2-2-2--------------------------------------------|
|-0-0-0-0-0-0-0-0-0-0-0-0-0-0-0-0-0-0--------------------------------------------|


Guitar 1 (0:40-0:41)
|--------------------------------------------------------------------------------|
|--------------------------------------------------------------------------------|
|-----4--------------------------------------------------------------------------|
|-5-4-4-4------------------------------------------------------------------------|
|-5-4-2-4------------------------------------------------------------------------|
|-3-2---2------------------------------------------------------------------------|


Guitar 1 (0:42-43)
|--------------------------------------------------------------------------------|
|--------------------------------------------------------------------------------|
|--------------------------------------------------------------------------------|
|--------------------------------------------------------------------------------|
|-2-2-2-2-2-2-2-2-2-2-2-2-2-2-2-2-2-2--------------------------------------------|
|-0-0-0-0-0-0-0-0-0-0-0-0-0-0-0-0-0-0--------------------------------------------|


Guitar 1 (0:44-0:45)
|--------------------------------------------------------------------------------|
|--------------------------------------------------------------------------------|
|-----4--------------------------------------------------------------------------|
|-5-4-4-4------------------------------------------------------------------------|
|-5-4-2-4------------------------------------------------------------------------|
|-3-2---2------------------------------------------------------------------------|


Guitar 1 (0:46-0:50)
|--------------------------------------------------------------------------------|
|--------------------------------------------------------------------------------|
|----------------------------------------------4---------------------------------|
|-----12-----12-----12-12-11-----12-----12-5-4-4-4-------------------------------|
|-----10-----10-----10-10-9------10-----10-5-4-2-4-------------------------------|
|-0-0----0-0----0-0----------0-0----0-0----3-2---2-------------------------------|


Guitar 1 (0:50-1:06)
|--------------------------------------------------------------------------------|
|--------------------------------------------------------------------------------|
|----------------------------------------------4---------------------------------|
|-----12-----12-----12-12-11-----12-----12-5-4-4-4-2-Let-It-Ring-----------------|
|-----10-----10-----10-10-9------10-----10-5-4-2-4-2-----------------------------|
|-0-0----0-0----0-0----------0-0----0-0----3-2---2-0-----------------------------|

Comments