Sum 41 - Grab The Devil By The Horns Chords & Tabs

 

Grab The Devil By The Horns Chords & Tabs

Sum 41 Chords & Tabs

Version: 2 Type: Bass Tab 0 ratings
1 star 2 stars 3 stars 4 stars 5 stars
comments

Grab The Devil By The Horns Bass Tab

   
Song : Grab The Devil By The Horns and Fuck Him Up The Ass
Artist : Sum 41
Album : Half Hour Of Power

Tabbed by KamSolusar (mightymaidenmaniac@hotmail.com)

/ 3 \ indicates triplet played with bracketted notes.
  > indicates accented note.

Guitar Solo Intro

(beat)              1 . 2 . 3 . 4 .  
G||----------------|----------------|----------------|----------------|
D||---3 bars rest--|----------------|----------------|----------------|
A||----------------|------------/---|7---------------|(7)-------------|
E||----------------|----------------|----------------|----------------|

                    / 3 \ / 3 \
G||----------------|------------|
D||----------------|------------|
A||----------------|------3-----|
E||0-0-------------|3-2-0---2-3-|

Palm Guitar Verse
   >                >                >                / 3 \ / 3 \ 
G||----------------|----------------|----------------|------------|
D||----------------|----------------|----------------|------------|
A||7---------------|5---------------|3---------------|------3-----|
E||----------------|----------------|----------------|3-2-0---2-3-|

   >                >                >                / 3 \ / 3 \ 
G||----------------|----------------|----------------|------------|
D||----------------|----------------|----------------|------------|
A||7---------------|5---------------|3---------------|------3-----|
E||----------------|----------------|----------------|3-2-0---2-3-|

Solo Guitar Verse

                                                      / 3 \ / 3 \ 
G||----------------|----------------|----------------|------------|
D||----------------|----------------|----------------|------------|
A||7-777-777-777-77|5-555-555-555-55|3-333-333-333-33|------3-----|
E||----------------|----------------|----------------|3-2-0---2-3-|
[ Tab from: http://www.guitartabs.cc/tabs/s/sum_41/grab_the_devil_by_the_horns_btab_ver_2.html ]
                                                      / 3 \ / 3 \  >
G||----------------|----------------|----------------|------------|--------|
D||----------------|----------------|----------------|------------|---hold-|
A||7-777-777-777-77|5-555-555-555-55|3-333-333-333-33|------3-----|7--chord|
E||----------------|----------------|----------------|3-2-0---2-3-|0-------|

Ending
                    >   >   >   >
G||----------------|----------------|
D||----------------|----------------|
A||----------------|--------2-------|
E||----------------|3---2-------3---|


   /3\/3\/3\/3\ /3\/3\/3\/3\ /3\/3\/3\/3\ >   >   >   >
G||------------|------------|------------|----------------|
D||------------|------------|------------|----------------|
A||---7-----7--|---7-----7--|---7-----7--|--------2-------|
E||000---000---|000---000---|000---000---|3---2-------3---|

   /3\/3\/3\/3\ /3\/3\/3\/3\ /3\/3\/3\/3\ >   >   >   >
G||------------|------------|------------|----------------|
D||------------|------------|------------|----------------|
A||---7-----7--|---7-----7--|---7-----7--|--------2-------|
E||000---000---|000---000---|000---000---|3---2-------3---|

   /3\/3\/3\/3\ /3\/3\/3\/3\ /3\/3\/3\/3\ >   >   >   >
G||------------|------------|------------|----------------|
D||------------|------------|------------|----------------|
A||---7-----7--|---7--7--5--|---7-----7--|--------2-------|
E||000---000---|000---------|000---000---|3---2-------3---|

   /3\/3\/3\/3\ /3\/3\/3\/3\ /3\/3\/3\/3\ >   >   >   >    >
G||------------|------------|------------|----------------|9-------------||
D||------------|------------|------------|----------------|9--hold chord-||
A||---7-----7--|---7--7--5--|---7-----7--|--------2-------|7-------------|| 
E||000---000---|000---------|000---000---|3---2-------3---|0-------------||

*fin*

===========================================================================
| /  slide up
| \  slide down
| h  hammer-on
| p  pull-off
| ~  vibrato
| +  harmonic
| x  Mute note
===========================================================================
Comments