Sum 41 - Grab The Devil By The Horns Chords & Tabs

 

Grab The Devil By The Horns Chords & Tabs

Sum 41 Chords & Tabs

Version: 1 Type: Bass Tab 0 ratings
1 star 2 stars 3 stars 4 stars 5 stars
comments

Grab The Devil By The Horns Bass Tab

-------------------------------------------------------------------------------
    Grab the Devil By the Horns Fuck Him Up the Ass  Sum 41  Bass Tab
-------------------------------------------------------------------------------

By: Me
	(0:09-0:10)
G|---------------------------------------------------------------------------|
D|---------------------------------------------------------------------------|
A|-------2-------------------------------------------------------------------|
E|-3-2-0---2-3-0-------------------------------------------------------------|
	(0:11-0:13)
G|---------------------------------------------------------------------------|
D|---------------------------------------------------------------------------|
A|-7-7-7-7-7-7-7-7-7-7-5-5-5-5-5-5-5-5-5-5-3-3-3-3-3-3-3-3-3-3---------------|
E|---------------------------------------------------------------------------|
	(0:14-0:15)
G|---------------------------------------------------------------------------|
D|---------------------------------------------------------------------------|
A|-------2-------------------------------------------------------------------|
E|-3-2-0---2-3-0-------------------------------------------------------------|

	(0:16-0:18)
G|---------------------------------------------------------------------------|
D|---------------------------------------------------------------------------|
A|-7-7-7-7-7-7-7-7-7-7-5-5-5-5-5-5-5-5-5-5-3-3-3-3-3-3-3-3-3-3---------------|
E|---------------------------------------------------------------------------|
	
	(0:20-0:21)
G|---------------------------------------------------------------------------|
D|---------------------------------------------------------------------------|
A|-------2-------------------------------------------------------------------|
E|-3-2-0---2-3-0-------------------------------------------------------------|

	(0:22-0:24)
G|---------------------------------------------------------------------------|
D|---------------------------------------------------------------------------|
A|-7-7-7-7-7-7-7-7-7-7-5-5-5-5-5-5-5-5-5-5-3-3-3-3-3-3-3-3-3-3---------------|
E|---------------------------------------------------------------------------|

	(0:25-0:26)
G|---------------------------------------------------------------------------|
D|---------------------------------------------------------------------------|
A|-------2-------------------------------------------------------------------|
E|-3-2-0---2-3-0-------------------------------------------------------------|
[ Tab from: http://www.guitartabs.cc/tabs/s/sum_41/grab_the_devil_by_the_horns_btab.html ]
	(0:28-0:30)
G|---------------------------------------------------------------------------|
D|---------------------------------------------------------------------------|
A|-7-7-7-7-7-7-7-7-7-7-5-5-5-5-5-5-5-5-5-5-3-3-3-3-3-3-3-3-3-3---------------|
E|---------------------------------------------------------------------------|
	
	(0:31-0:32)
G|---------------------------------------------------------------------------|
D|---------------------------------------------------------------------------|
A|-------2--------Let-Ring---------------------------------------------------|
E|-3-2-0---2-3-0-------------------------------------------------------------|
(Cue the Iron Maiden Scream)

	(0:34-0:36)
G|---------------------------------------------------------------------------|
D|---------------------------------------------------------------------------|
A|-----2---------------------------------------------------------------------|
E|-3-2---2-------------------------------------------------------------------|

	

	(0:37-0:39)
G|---------------------------------------------------------------------------|
D|---------------------------------------------------------------------------|
A|---------------------------------------------------------------------------|
E|-0-0-0-0-0-0-0-0-0-0-0-0---------------------------------------------------|

	(0:40-0:41)
G|---------------------------------------------------------------------------|
D|---------------------------------------------------------------------------|
A|-----2---------------------------------------------------------------------|
E|-3-2---2-------------------------------------------------------------------|

	(0:42-0:43)
G|---------------------------------------------------------------------------|
D|---------------------------------------------------------------------------|
A|---------------------------------------------------------------------------|
E|-0-0-0-0-0-0-0-0-0-0-0-0---------------------------------------------------|

	(0:44-0:45)
G|---------------------------------------------------------------------------|
D|---------------------------------------------------------------------------|
A|-----2---------------------------------------------------------------------|
E|-3-2---2-------------------------------------------------------------------|

	(0:46-0:50)
G|-----0-----0-----0-------0-----0-------------------------------------------|
D|-------------------4-------------------------------------------------------|
A|--------------------------------------2----Let-Ring------------------------|
E|-0-0---0-0---0-0-----0-0---0-0----3-2---2----------------------------------|

===============================================================================
Comments