Sum 41 - Fat Lip Chords & Tabs

 

Fat Lip Chords & Tabs

Sum 41 Chords & Tabs

Version: 8 Type: Tab 0 ratings
1 star 2 stars 3 stars 4 stars 5 stars
comments

Fat Lip Tab

Artist: Sum 41
Album: All Killer No Filler
Song: Fat Lip
Tabbed By: Nickelback
Email: the_cool_dude89@hotmail.com


INTRO: X2
Guitar 1
e-------------------------------------------------------------
b-------------------------------------------------------------
g-------------------------------------------------------------
d--------6----------------6-----------------------------------
a----------------9---------------9-7--------------------------
D--6-7-9---6-7-9---6-7-9---6-7-9------------------------------


Guitar 1 X2                   Guitar 2 X2
e-------------------------------|----------------------------------
b-------------------------------|----------------------------------
g-------------------------------|----------------------------------
d--022-6-022-4-022-6-022-4-2----|--0222-0227-0222-0227-------------
a--022---022---022---022--------|--0222-0227-0222-0227-------------
D--022---022---022---022--------|--0222-0227-0222-0227-------------


VERSE PART 1:
Guitar 1 X2          Guitar 2 X1 (play this the second time when you hear it on cd)
e----------------------------|----------------------------------
b----------------------------|----------------------------------
g-------44-22----------------|----989---------------------------
d-2-212-44-22-212------------|----xxx---------------------------
a-2-----22-00-----0----------|----767---------------------------
D-2-----------------6-4------|----------------------------------


VERSE PART 2:
Guitar 1 X2                               Guitar 2                    
e---------------------------------------|-------------------------------------------
b---------------------------------------|-------------------------------------------
g-----------------666-666---------------|-----------------666-666-------------------
d-222-222-222-222-666-666-777-777-------|-222-222-222-222-xxx-xxx-777-777-----------
a-222-222-222-222-444-444-777-777-------|-222-222-222-222-444-444-777-777-----------
D-222-222-222-222---------777 777-------|-222-222-222-222---------777-777-----------
pm..  ..  ..  ..  ..  ..  ..  ..          ..  ..  ..  ..  ..  ..  ..  ..

  
CHORUS:
Guitar 1                  Guitar 2
e------------------------|-------------------------------------------------------
b------------------------|-------------------------------------------------------
g-99-44-6666-------------|-99-44-6666-88-99-88-99-----------88-99-1111-99--------
d-99-44-6666-66-77-66-77-|-99-44-xxxx-xx-xx-xx-xx-last time-xx-xx-x-x--xx--------
a-77-22-4444-66-77-66-77-|-77-22-4444-66-77-66-77-----------66-77-9-9--77--------
D------------66-77-66-77-|-------------------------------------------------------


Guitar 1 X2                   Guitar 2 X2
e-------------------------------|----------------------------------
b-------------------------------|----------------------------------
g-------------------------------|----------------------------------
d--022-6-022-4-022-6-022-4-2----|--0222-0227-0222-0227-------------
a--022---022---022---022--------|--0222-0227-0222-0227-------------
D--022---022---022---022--------|--0222-0227-0222-0227-------------


VERSE PART 1:
Guitar 1 X2                   Guitar 2 X1 (play this the second time) 
e----------------------------|----------------------------------
b----------------------------|----------------------------------
g-------44-22----------------|----989---------------------------
d-2-212-44-22-212------------|----xxx---------------------------
a-2-----22-00-----0----------|----767---------------------------
D-2-----------------6-4------|----------------------------------

[ Tab from: http://www.guitartabs.cc/tabs/s/sum_41/fat_lip_tab_ver_8.html ]
VERSE PART 2:
Guitar 1 X2                               Guitar 2                    
e---------------------------------------|-------------------------------------------
b---------------------------------------|-------------------------------------------
g-----------------666-666---------------|-----------------666-666-------------------
d-222-222-222-222-666-666-777-777-------|-222-222-222-222-xxx-xxx-777-777-----------
a-222-222-222-222-444-444-777-777-------|-222-222-222-222-444-444-777-777-----------
D-222-222-222-222---------777 777-------|-222-222-222-222---------777-777-----------
pm..  ..  ..  ..  ..  ..  ..  ..          ..  ..  ..  ..  ..  ..  ..  ..


CHORUS:
Guitar 1                  Guitar 2
e------------------------|-------------------------------------------------------
b------------------------|-------------------------------------------------------
g-99-44-6666-------------|-99-44-6666-88-99-88-99-----------88-99-1111-99--------
d-99-44-6666-66-77-66-77-|-99-44-xxxx-xx-xx-xx-xx-last time-xx-xx-x-x--xx--------
a-77-22-4444-66-77-66-77-|-77-22-4444-66-77-66-77-----------66-77-9-9--77--------
D------------66-77-66-77-|-------------------------------------------------------


INTERLUDE:
Guitar 1
e------------------------------------------------------------------------------
b------------------------------------------------------------------------------
g------------------------------------------------------------------------------
d-22-x-22-xx-2-22-x-22-xx-7-22-x-22-xx-2-22-x-22-------------------------------
a-22-x-22-xx-2-22-x-22-xx-7-22-x-22-xx-2-22-x-22-------------------------------
D-22-x-22-xx-2-22-x-22-xx-7-22-x-22-xx-2-22-x-22-------------------------------


Guitar 1 X2                       Guitar 2 X2 (somethin like that anyway)
e--------------------------------|-------------------------------
b--------------------------------|-------------------------------
g-----9-------9-------6----------|-9---9---9---9--------------9--
d---9---9---9---9---6---6---2----|---9---9---9---9-etc etc--9---9
a-7-------6-------4-------0---0--|-------------------------------
D--------------------------------|-------------------------------

Guitar 1 and 2
e------------------------------------------------------------------------------------
b------------------------------------------------------------------------------------
g------------------------------------------------------------------------------------
d-0222-0227-0222-0227---------0222-0227-0222-02--02--0227-0222-0227---------00000000-
a-0222-0227-0222-0227--pause--0222-0227-0222-02--02--0227-0222-0227--pause--00000000-
D-0222-0227-0222-0227---------0222-0227-0222-02--02--0227-0222-0227---------00000000-
pm                                                                          ......


CHORUS:
Guitar 1                  Guitar 2
e------------------------|-------------------------------------------------------
b------------------------|-------------------------------------------------------
g-99-99-6666-------------|-99-1111-6666-88-99-88-99-----------88-99-1111-99------
d-99-99-6666-66-77-66-77-|-xx-x-x--xxxx-xx-xx-xx-xx-last time-xx-xx-x-x--xx------
a-77-66-4444-66-77-66-77-|-77-9-9--4444-66-77-66-77-----------66-77-9-9--77------
D------------66-77-66-77-|-------------------------------------------------------


Guitar 1 X2                   Guitar 2 X2
e-------------------------------|----------------------------------
b-------------------------------|----------------------------------
g-------------------------------|----------------------------------
d--022-6-022-4-022-6-022-4-2----|--0222-0227-0222-0227-------------
a--022---022---022---022--------|--0222-0227-0222-0227-------------
D--022---022---022---022--------|--0222-0227-0222-0227-------------


Both Guitars
e-------------------------------------------------------------
b-------------------------------------------------------------
g-------------------------------------------------------------
d-22-22-------------------------------------------------------
a-22-22-------------------------------------------------------
D-22-22-------------------------------------------------------
Comments