Sum 41 - Fat Lip Chords & Tabs

 

Fat Lip Chords & Tabs

Sum 41 Chords & Tabs

Version: 5 Type: Tab 0 ratings
1 star 2 stars 3 stars 4 stars 5 stars
comments

Fat Lip Tab

Ummm like this is my first tab that ive ever done so emailme and let me no wut u think thx!!!


|-------------------------------
|-------------------------------
|-----4-------2----------4---2-0 
|-------------------------------x2
|2-3-4-2-3-4------2-3-4-2-3-4---
|-------------------------------

|-------------------------------
|-------------------------------
|-----4-------2----------4---2-0 
|-------------------------------x2
|2-3-4-2-3-4------2-3-4-2-3-4---
|-------------------------------

|---------------------|---------------------
|---------------------|---------------------
|-2-1-2----2-2-1-2----|-2-1-2----2-2-1-2----
|2-----2-2-0------0---|2-----2-2-0------0---x2
|0-----------------4-2|0-----------------4-2
|---------------------|---------------------

|---------------------------------|----------------------------------|
|---------------------------------|----------------------------------|
|---------------------------------|----------------------------------|
|---------------------------------|-6x-6x-6-6x-6x-6------------------|
|-2x-2x-2-2x-2x-2-2x-2x-2-2x-2x-2-|-4x-4x-4-4x-4x-4-7x-7x-7-7x-7x-7--|
|-0x-0x-0-0x-0x-0-0x-0x-0-0x-0x-0-|-----------------5x-5x-5-5x-5x-5--|

|---------------------------------|----------------------------------|
|---------------------------------|----------------------------------|
|---------------------------------|----------------------------------|
|---------------------------------|-6x-6x-6-6x-6x-6------------------|
|-2x-2x-2-2x-2x-2-2x-2x-2-2x-2x-2-|-4x-4x-4-4x-4x-4-7x-7x-7-7x-7x-7--|
|-0x-0x-0-0x-0x-0-0x-0x-0-0x-0x-0-|-----------------5x-5x-5-5x-5x-5--|


|---------------------------------|----------------------------------|
|---------------------------------|----------------------------------|
|---------------------------------|----------------------------------|
|--9-9----------------------------|--9-9-----------------------------|
|--7-7-9-9-11-11-6-6-7-7-6-6-7-7--|--7-7-9-9-11-11-6-6-7-7-6-6-7-7---|
|------7-7--9--9-4-4-5-5-4-4-5-5--|------7-7--9--9-4-4-5-5-4-4-5-5---|

|-------------------------------|----------------------------------|
|-------------------------------|----------------------------------|
|-------------------------------|----------------------------------|
|------------6-----------4------|-----------6----------4--2--------|
|-------------------------------|----------------------------------|
|--4--5--6------4--5--6---------|--4--5--6-----4--5--6-------------|
[ Tab from: http://www.guitartabs.cc/tabs/s/sum_41/fat_lip_tab_ver_5.html ]
|-------------------------------|----------------------------------|
|-------------------------------|----------------------------------|
|-------------------------------|----------------------------------|
|------------6-----------4------|-----------6----------4--2--------|
|-------------------------------|----------------------------------|
|--4--5--6------4--5--6---------|--4--5--6-----4--5--6-------------|

|-------------------------------|----------------------------------|
|-------------------------------|----------------------------------|
|-------------------------------|----------------------------------|
|------2-1-2-----2-2-2-1-2------|------2-1-2-----2-2-2-1-2---------|
|--2-2-------2-2-0-0-------0----|--2-2-------2-2-0-0-------0-------|
|--0-0-----------------------4-2|--0-0-----------------------4-2---|

|-------------------------------|----------------------------------|
|-------------------------------|----------------------------------|
|-------------------------------|----------------------------------|
|------2-1-2-----2-2-2-1-2------|------2-1-2-----2-2-2-1-2---------|
|--2-2-------2-2-0-0-------0----|--2-2-------2-2-0-0-------0-------|
|--0-0-----------------------4-2|--0-0-----------------------4-2---|

|---------------------------------|----------------------------------|
|---------------------------------|----------------------------------|
|---------------------------------|----------------------------------|
|---------------------------------|-6x-6x-6-6x-6x-6------------------|
|-2x-2x-2-2x-2x-2-2x-2x-2-2x-2x-2-|-4x-4x-4-4x-4x-4-7x-7x-7-7x-7x-7--|
|-0x-0x-0-0x-0x-0-0x-0x-0-0x-0x-0-|-----------------5x-5x-5-5x-5x-5--|

|---------------------------------|----------------------------------|
|---------------------------------|----------------------------------|
|---------------------------------|----------------------------------|
|---------------------------------|-6x-6x-6-6x-6x-6------------------|
|-2x-2x-2-2x-2x-2-2x-2x-2-2x-2x-2-|-4x-4x-4-4x-4x-4-7x-7x-7-7x-7x-7--|
|-0x-0x-0-0x-0x-0-0x-0x-0-0x-0x-0-|-----------------5x-5x-5-5x-5x-5--|


|---------------------------------|----------------------------------|
|---------------------------------|----------------------------------|
|---------------------------------|----------------------------------|
|--9-9----------------------------|--9-9-----------------------------|
|--7-7-9-9-11-11-6-6-7-7-6-6-7-7--|--7-7-9-9-11-11-6-6-7-7-6-6-7-7---|
|------7-7--9--9-4-4-5-5-4-4-5-5--|------7-7--9--9-4-4-5-5-4-4-5-5---|

|---------------------------------|----------------------------------|
|---------------------------------|----------------------------------|
|-----------------------------2---|-----------------------------2----|
|-----------------------------2---|-----------------------------2----|
|-2-2---2-2---2-2---2-2---2-2-----|-2-2---2-2---2-2---2-2---2-2------|
|-0-0---0-0---0-0---0-0---0-0-----|-0-0---0-0---0-0---0-0---0-0------|


Sorry but i havent gotten down the solo yet
Comments