Sum 41 - Fat Lip Chords & Tabs

 

Fat Lip Chords & Tabs

Sum 41 Chords & Tabs

Version: 10 Type: Tab 0 ratings
1 star 2 stars 3 stars 4 stars 5 stars
comments

Fat Lip Tab

Artist: Sum 41        PM - palm mute
Title:  Fat Lip       \  - slide down
Tabber: i_m_heer      /  - slide up
Tuning: Standard      ~  - let it ring 



Intro   x2 (on second time remove palm mutes)

E--------------------------------------------
B--------------------------------------------
G--------------------------------------------
D----------------6------------------4--------
A--------------------------------------------
E---4---5---7----------4---5---7-------------
    ____PM____         ____PM____


E--------------------------------------------
B--------------------------------------------
G--------------------------------------------
D----------------6--------------------4--2---
A--------------------------------------------
E---4---5---7------------4---5---7-----------
    ____PM___          ____PM___


E--------------------------------------------
B--------------------------------------------
G--------------------------------------------
D----------------6------------------4--------
A--------------------------------------------
E---4---5---7----------4---5---7-------------
    ____PM____         ____PM____


E--------------------------------------------
B--------------------------------------------
G--------------------------------------------
D----------------6------------------4--2-----
A--------------------------------------------
E---4---5---7----------4---5---7-------------
    ____PM____         ____PM____              


 
Verse 1--------------------------- (when singing comes in)

E------------------------------------------------
B------------------------------------------------
G------------------------------------------------
D-------------4---4~----2-2----------------------
A-----7-6-7---2---2~----0-0---7-6-7--------------
E-0-----------------------------------5--4--2--0-


E------------------------------------------------
B------------------------------------------------
G------------------------------------------------
D-----7-6-7---4---4~----2-2----------------------
A-----7-6-7---2---2~----0-0---7-6-7--------------
E-0-----------------------------------5--4--2--0-





Pre Chorus  (faster- I know I'm not the one...)

Guitar 2

E------------------------------------------
B------------------------------------------
G---x--x--9~--x--x--9~--x--x--9~--x--x--9~-
D---x--x--9~--x--x--9~--x--x--9~--x--x--9~-
A---x--x--7~--x--x--7~--x--x--7~--x--x--7~-
E------------------------------------------

E------------------------------------------
B------------------------------------------
G---x--x--6~--x--x--6~--x--x--2~--x--x--2~-
D---x--x--6~--x--x--6~--x--x--2~--x--x--2~-
A---x--x--4~--x--x--4~--x--x--0~--x--x--0~-
E------------------------------------------  

E------------------------------------------
B------------------------------------------
G---x--x--9~--x--x--9~--x--x--9~--x--x--9~-
D---x--x--9~--x--x--9~--x--x--9~--x--x--9~-
A---x--x--7~--x--x--7~--x--x--7~--x--x--7~-
E------------------------------------------


Guitar 1
E-------------------------------------------------
B-------------------------------------------------
G-------------------------------------------------
D-------------------------------------------------
A-2--2--2--2--2--2--2--2--2--2--2--2--2--2--2--2--
E-0--0--0--0--0--0--0--0--0--0--0--0--0--0--0--0--
 _______________________PM______________________


E-------------------------------------------------
B-------------------------------------------------
G-------------------------------------------------
D-6--6--6--6--6--6--6--6--------------------------
A-4--4--4--4--4--4--4--4--7--7--7--7--7--7--7--7--
E-------------------------5--5--5--5--5--5--5--5--
 _________________________PM______________________


E-------------------------------------------------
B-------------------------------------------------
G-------------------------------------------------
D-------------------------------------------------
A-2--2--2--2--2--2--2--2--2--2--2--2--2--2--2--2--
E-0--0--0--0--0--0--0--0--0--0--0--0--0--0--0--0--
 _____________________PM__________________________


 Guitar2
E-----------------------------------------------
B-----------------------------------------------
G---------------------------15\-----------------
 Guitar1
D-6--6--6--6--6--6--6--6------------------------
A-4--4--4--4--4--4--4--4----7--------7----------E---------------------------5--------5----------
   _PM__________________



Chorus x2 ------------- (I dont want to waste my time...)

E-----------------------------------------------------
B-----------------------------------------------------
G--9--------------------------------------------------
D--9---9--9----11-11-11-11-11--6---6-7---7-6---6-7-7--
A--7---9--9----9--9--9--9--9---6---6-7---7-6---6-7-7--
E------7--7----9--9--9--9--9---4---4-5---5-4---4-5-5--


Intro  x2

E-------------------------------------------
B-------------------------------------------
G-------------------------------------------
D-----------------6---------------------4---
A-------------------------------------------
E---4---5---7------------4---5---7----------
   ____PM_____          _____PM____


E--------------------------------------------
B--------------------------------------------
G--------------------------------------------
D-----------------6---------------------4--2-
A--------------------------------------------
E---4---5---7------------4---5---7-----------
 ______PM______        _____PM_____


------PAUSE---------------------    (because  you  don't)


Verse 2 -----------------------        (know us at all...)

E-----------------------------------------------------
B-----------------------------------------------------
G-----------------------------------------------------
D----------------4---4~----2-2------------------------
A-------7-6-7----2---2~----0-0-----7-6-7--------------
E--0---------------------------------------5--4--2--0-


E-----------------------------------------------------
B-----------------------------------------------------
G-----------------------------------------------------
D-------7-6-7----4---4~----2-2------------------------
A-------7-6-7----2---4~----0-0-----7-6-7--------------
E--0---------------------------------------5--4--2--0-

Pre Chorus ------------------- (Cause we like having fun)

Guitar 2

E------------------------------------------
B------------------------------------------
G---x--x--9~--x--x--9~--x--x--9~--x--x--9~-
D---x--x--9~--x--x--9~--x--x--9~--x--x--9~-
A---x--x--7~--x--x--7~--x--x--7~--x--x--7~-
E------------------------------------------
[ Tab from: http://www.guitartabs.cc/tabs/s/sum_41/fat_lip_tab_ver_10.html ]
E------------------------------------------
B------------------------------------------
G---x--x--6~--x--x--6~--x--x--2~--x--x--2~-
D---x--x--6~--x--x--6~--x--x--2~--x--x--2~-
A---x--x--4~--x--x--4~--x--x--0~--x--x--0~-
E------------------------------------------  

E------------------------------------------
B------------------------------------------
G---x--x--9~--x--x--9~--x--x--9~--x--x--9~-
D---x--x--9~--x--x--9~--x--x--9~--x--x--9~-
A---x--x--7~--x--x--7~--x--x--7~--x--x--7~-
E------------------------------------------

Guitar 1
E-------------------------------------------------
B-------------------------------------------------
G-------------------------------------------------
D-------------------------------------------------
A-2--2--2--2--2--2--2--2--2--2--2--2--2--2--2--2--
E-0--0--0--0--0--0--0--0--0--0--0--0--0--0--0--0--
 _______________________PM________________________


E-------------------------------------------------
B-------------------------------------------------
G-------------------------------------------------
D-6--6--6--6--6--6--6--6--------------------------
A-4--4--4--4--4--4--4--4--7--7--7--7--7--7--7--7--
E-------------------------5--5--5--5--5--5--5--5--
 _______________________PM________________________


E-------------------------------------------------
B-------------------------------------------------
G-------------------------------------------------
D-------------------------------------------------
A-2--2--2--2--2--2--2--2--2--2--2--2--2--2--2--2--
E-0--0--0--0--0--0--0--0--0--0--0--0--0--0--0--0--
 ________________________PM_______________________




 Guitar2
E-----------------------------------------------
B-----------------------------------------------
G---------------------------15\-----------------
 Guitar1
D-6--6--6--6--6--6--6--6------------------------
A-4--4--4--4--4--4--4--4----7--------7----------E---------------------------5--------5----------
   _PM_Guitar1__________


Chorus x2 ------------ (I dont want to waste my time...)

E-----------------------------------------------------
B-----------------------------------------------------
G--9--------------------------------------------------
D--9---9--9----11-11-11-11-11--6---6-7---7-6---6-7-7--
A--7---9--9----9--9--9--9--9---6---6-7---7-6---6-7-7--
E------7--7----9--9--9--9--9---4---4-5---5-4---4-5-5--


Bridge --------------------------------------------

Guitar 1
E---------------------------------------------------------
B---------------------------------------------------------
G---------------------------------------------------------
D-----------------------------------------2---------------
A--2--2-x--2--2-xx--2----2--2-x--2--2-xx--0--2--2-x--2--2-
E--0--0-x--0--0-xx--0----0--0-x--0--0-xx-----0--0-x--2--0-

E------------------------
B------------------------
G------------------------
D------------------------
A-xx--2---2--2--x--2--2--
E-xx--0---0--0--x--0--0--

E---------------------------------------------------
B---------------------------------------------------
G--------9------------9-----------6-----------------
D-----9-----9------9-----9-----6-----6--------------
A--7-----------6------------4-------------------7---
E------------------------------------------5-----5--  x4

Guitar 2    (3rd & 4th Time Only)E---------------------------------------
B---------------------------------------
G-9---9---9---9---9---9------- 9-------- 
D---9---9---9---9---9---9-9/11---9/11-9-
A---------------------------------------
E---------------------------------------

Guitar 1
E---------------             E------------------------
B------------9--             B------------9-----------
G-7/9-9--7/9-7--     Drum -\ G-7/9-9--7/9-7--7/9-9----
D-5/7-7--5/7-7--     Break-/ D-5/7-7--5/7-7--5/7-7----
A-5/7-7--5/7----             A-5/7-7--5/7----5/7-7----
E--------------- x2          E------------------------

E-------------------------------------
B-----------------9---------------9---
G-7/9--7/9----7/9-7----7/9-9--7/9-7---
D-5/7--5/7----5/7-7----5/7-7--5/7-7---
A-5/7--5/7----5/7------5/7-7--5/7-----
E-------------------------------------

Guitar 1

E----------------------------------    ----
B----------------------------------    ----
G--7-7-7-7-7-7-7-7-7-7-7-7-7-7-7-7-    -7--
D--7-7-7-7-7-7-7-7-7-7-7-7-7-7-7-7-    -7--
A--5-5-5-5-5-5-5-5-5-5-5-5-5-5-5-5-    -5-- x16
E----------------------------------    ----
 ________________PM________________    _PM_

Guitar 2

E----------------------------------    ----
B----------------------------------    ----
G----------------------------------    -7--
D----------------------------------    -7--
A----------------------------------    -5-- x16
E----------------------------------    ----

Chorus x2 ------------ (I dont want to waste my time...)

E-----------------------------------------------------
B-----------------------------------------------------
G--9--------------------------------------------------
D--9---9--9----11-11-11-11-11--6---6-7---7-6---6-7-7--
A--7---9--9----9--9--9--9--9---6---6-7---7-6---6-7-7--
E------7--7----9--9--9--9--9---4---4-5---5-4---4-5-5--


Chorus Variation ---------- (Waste my time with them...)

E--------------------------------
B-----9---------------------------
G-9-9-9--11-11-13--6-6/7--6-6/7--- 
D-9-9-7--11-11-13--6-6/7--6-6/7---
A-7-7----9--9--11--4-4/5--4-4/5---   x2
E---------------------------------


Intro -------------------------- (back down, back down,...)

E--------------------------------------------
B--------------------------------------------
G--------------------------------------------
D----------------6------------------4--------
A--------------------------------------------
E---4---5---7----------4---5---7-------------
    

E--------------------------------------------
B--------------------------------------------
G--------------------------------------------
D----------------6--------------------4--2---
A--------------------------------------------
E---4---5---7------------4---5---7-----------


E--------------------------------------------
B--------------------------------------------
G--------------------------------------------
D----------------6------------------4--------
A--------------------------------------------
E---4---5---7----------4---5---7-------------
    

E--------------------------------------------
B--------------------------------------------
G--------------------------------------------
D----------------6------------------4--2-----
A--------------------------------------------
E---4---5---7----------4---5---7-------------


Ending ------------------------------------------------

E------------
B------------
G------------
D--2-2--2-2--
A--2-2--2-2--
E--0-0--0-0-- 

THAT'S IT!
Comments