Sum 41 - Fat Lip Chords & Tabs

 

Fat Lip Chords & Tabs

Sum 41 Chords & Tabs

Version: 6 Type: Bass Tab 0 ratings
1 star 2 stars 3 stars 4 stars 5 stars
comments

Fat Lip Bass Tab

   
ARTIST...Sum 41
SONG.....Fat Lip
TAB......BASS
TUNING...DROP D (LOW-HIGH: D A D G)
BY.......XERO
EMAIL....el_xero@yahoo.com


x1 (:09)
G|------|
D|------|
A|------|
D|-12/0-|

x4
G|--------------|
D|--------------|
A|------------0-|
D|-0-2-2--0-2---|

x2
G|----------------------|
D|----------------------|
A|------2-2--0-0--0-----|
D|-2-2--------------6-4-|

x2
G|-----------------------------------------------------------------|
D|-----------------------------------------------------------------|
A|---------------------------------4-4-4-4-4-4-4-4-0-0-0-0-0-0-0-0-|
D|-2-2-2-2-2-2-2-2-2-2-2-2-2-2-2-2---------------------------------|

x2
G|----------------------------------------------|
D|-2-2-2-2--------------------------------------|
A|---------2-2-2-2-4-4-4-4-4-4-4-4--------------|
D|---------------------------------6-7-7--6-7-7-|

x4
G|--------------|
D|--------------|
A|------------0-|
D|-0-2-2--0-2---|

then after the short pause...

x2
G|----------------------|
D|----------------------|
A|------2-2--0-0--0-----|
D|-2-2--------------6-4-|

x2
G|-----------------------------------------------------------------|
D|-----------------------------------------------------------------|
A|---------------------------------4-4-4-4-4-4-4-4-0-0-0-0-0-0-0-0-|
D|-2-2-2-2-2-2-2-2-2-2-2-2-2-2-2-2---------------------------------|

x2
G|----------------------------------------------|
D|-2-2-2-2--------------------------------------|
A|---------2-2-2-2-4-4-4-4-4-4-4-4--------------|
D|---------------------------------6-7-7--6-7-7-|
[ Tab from: http://www.guitartabs.cc/tabs/s/sum_41/fat_lip_btab_ver_6.html ]
x1
G|-------------------------------------------------|
D|-------------------------------------------------|
A|------------------------0------------------------|
D|-2-2--2-2--2--2-2--2-2-----2-2--2-2--2--2-2--2-2-|

then rest (4 measures)...

G|------------------------------------------------|
D|------------------------------------------------|
A|----------2-2--4-4--0-2-4------2-2--4-4---------|
D|-0h4-2-2------------------2-2--------------12/0-|

x2
G|--------------|
D|--------------|
A|------------0-|
D|-0-2-2--0-2---|

pause, then...

x1
G|------|
D|------|
A|------|
D|-12/0-|

x1
G|----------------------------------------------------|
D|----------------------------------------------------|
A|------------0-----------------------0-------------0-|
D|-0-2-2--0-2----0-2-2--0-2--0-2--0-2----0-2-2--0-2---|

x1
G|---------------------------------------------------------------------|
D|---------------------------------------------------------------------|
A|---------------------------------------------------------------------|
D|-12/-0-0-0-0-0-0-0-0-0-0-0-0-0-0-0-0-0-0-0-0-0-0-0-0-0-0-0-0-0-0-0-0-|

x2
G|----------------------------------------------|
D|-2-2-2-2--------------------------------------|
A|---------2-2-2-2-4-4-4-4-4-4-4-4--------------|
D|---------------------------------6-7-7--6-7-7-|

x1
G|-----------------------------------------------------------------|
D|-----------------------------------------------------------------|
A|-7-7-5-5-3-3-2-2-----------------5-5-7-7-3-3-2-2-----------------|
D|-----------------6-6-7-7-6-6-7-7-----------------6-6-7-7-6-6-7-7-|

x2
G|--------------|
D|--------------|
A|------------0-|
D|-0-2-2--0-2---|

x1
G|----------|
D|----------|
A|----------|
D|-2-2--2-2-|
Comments