Sum 41 - Fat Lip Chords & Tabs

 

Fat Lip Chords & Tabs

Sum 41 Chords & Tabs

Version: 5 Type: Bass Tab 0 ratings
1 star 2 stars 3 stars 4 stars 5 stars
comments

Fat Lip Bass Tab

   
this song sounds 100% right to me
Intro
(Come in after guitar solo)
G|-------|
D|-22222-|
A|-------|
E|-------|

Pre-Verse (x8)
G|--------------|
D|-0-2-2--0-2-2-|
A|--------------|
E|--------------|

Rap Verse (x2)
G|----------------------|
D|----------------------|
A|------2-2--0-0--0-----|
E|-0-0--------------4-2-|

Rock Verse (x2)
G|------------------------------------|
D|------------------------------------|
A|------------------44444444-22222222-|
E|-0000000000000000-------------------|

G|------------------------------------|
D|------------------------------------|
A|---------------------------00000000-|
E|-0000000000000000-44444444----------|

Chorus (x2)
G|------------------------------|
D|-2----------------------------|
A|---2-2--4-4--4444-------------|
E|-----------------4-5-5--4-5-5-|

Pre-Verse (x8)
G|--------------|
D|-0-2-2--0-2-2-|
A|--------------|
E|--------------|

Rap Verse (x2)
(Delayed Entrance)
G|----------------------|
D|----------------------|
A|------2-2--0-0--0-----|
E|-0-0--------------4-2-|

Rock Verse (x2)
G|------------------------------------|
D|------------------------------------|
A|------------------44444444-22222222-|
E|-0000000000000000-------------------|

G|------------------------------------|
D|------------------------------------|
A|---------------------------00000000-|
E|-0000000000000000-44444444----------|

Chorus (x2)
G|------------------------------|
D|-2----------------------------|
A|---2-2--4-4--4444-------------|
E|-----------------4-5-5--4-5-5-|
[ Tab from: http://www.guitartabs.cc/tabs/s/sum_41/fat_lip_btab_ver_5.html ]
G|------------------------2------------------------|
D|-2-2--2-2--2--2-2--2-2-----2-2--2-2--2--2-2--2-2-|
A|-------------------------------------------------|
E|-------------------------------------------------|

Break
(Come in at "Do it again...")	
G|--------------------------|
D|--------------------------|
A|-2-4------2-2--4-4--0-2-4-|
E|-----0-0------------------|

G|----------------|
D|----------------|
A|------2-2--4-4--|
E|-0-0------------|

Rap Verse
G|------------2---------------|
D|-0-2-2--0-2----0-2-2--0-2-2-|
A|----------------------------|
E|----------------------------|

(Come in after "keffuffin")
G|------------2-----------------------2-------------2-|
D|-0-2-2--0-2----0-2-2--0-2--0-2--0-2----0-2-2--0-2---|
A|----------------------------------------------------|
E|----------------------------------------------------|

(Come in after fourth "abortion echo")
G|-------------------------------------|
D|-12/00000000000000000000000000000000-|
A|-------------------------------------|
E|-------------------------------------|

Chorus (x2)
G|------------------------------|
D|-2----------------------------|
A|---2-2--4-4--4444-------------|
E|-----------------4-5-5--4-5-5-|

Break
G|---------------------------------|
D|-2-2-1-1-----2-2-----------------|
A|---------4-4---------------------|
E|-----------------4-4-5-5-4-4-5-5-|

G|-----4444-------------|
D|-2-2----------6-6-7-9-|
A|----------4-4---------|
E|----------------------|

(x8)
G|--------------|
D|-0-2-2--0-2-2-|
A|--------------|
E|--------------|

Ending
G|----------|
D|-2-2--2-2-|
A|----------|
E|----------|
Comments