Sum 41 - Fat Lip Chords & Tabs

 

Fat Lip Chords & Tabs

Sum 41 Chords & Tabs

Version: 4 Type: Bass Tab 0 ratings
1 star 2 stars 3 stars 4 stars 5 stars
comments

Fat Lip Bass Tab

   
-------------------------------------------------------------------------------
			     Fat lip - Sum 41
-------------------------------------------------------------------------------
Tabbed By : Zero is great man
Tuning: Dropped D tunning: DADG

Artist: Sum41
Albulm: All killer, No filler
Song title: Fatlip (Track 7)
Tempo: Punk

Intro/Fill: "Back down"
G|------------------|
D|------------------|
A|----------------0-|
D|-0-0-2-2--0-0-2---|

Verse: "Storming throgh a party..."
G|--------------------|
D|--------------------|
A|-------2-2-0-0------|
D|-2-2------------6-4-|

Verse part 2: "Well I know I'm not the one ..."
G|----------------------------------|
D|----------------------------------|
A|------------------2-2-2-2-0-0-0-0-|
D|-2-2-2-2-2-2-2-2------------------|

Chorus: "I don't wanna waste my time..."
G|---------------------|
D|-2-------------------|
A|---2-4-------0-0-0-0-|
D|-------6-6-6---------|
[ Tab from: http://www.guitartabs.cc/tabs/s/sum_41/fat_lip_btab_ver_4.html ]
Interlude: "Back down..."
G|------------------------------------------|
D|------------------------------------------|
A|--------------------0---------------------|
D|-2-2--2-2--2-2--2-2----2-2--2-2--2-2--2-2-|

Bridge: "Don't count on me, it's the point your missing"
G|--------------------------------|
D|-2-2-2-2--1-1-1-1---------------|
A|-------------------4-4-4--0-0-0-|
D|--------------------------------|

Verse 3: "Well I'm a no good nick..."(This part has some pauses)
G|----------------------------------------|
D|----------------------------------------|
A|------------------0-------------------0-|
D|-0-0-2-2--0-0-2-2----0-0-2-2--0-0-2-2---|

Outro:(end on this)
G|----------|
D|----------|
A|----------|
D|-2-2--2-2-|

| /  slide up
| \  slide down
| h  hammer-on
| p  pull-off
| ~  vibrato
| +  harmonic
| x  Mute note

This song is so easy to play, which makes me wonder about all those
wrong tabs, any way it's all here, so enjoy!
===============================================================================
Comments