Sum 41 - Fat Lip Bridge Chords & Tabs

 

Fat Lip Bridge Chords & Tabs

Sum 41 Chords & Tabs

Version: 1 Type: Tab 0 ratings
1 star 2 stars 3 stars 4 stars 5 stars
comments

Fat Lip Bridge Tab

   
#---------------------------------YOU BEST NOTE-------------------------------#
#This file is the author's own work and represents their interpretation of the#
#song. You may only use this file for private study, scholarship, or research.#
#-----------------------------------------------------------------------------#
#---------------------------------YOU BEST NOTE-------------------------------#
#This file is the author's own work and represents their interpretation of the#
#song. You may only use this file for private study, scholarship, or research.#
#-----------------------------------------------------------------------------#

Fat Lip Bridge

Sum 41 - cool kads.

transcribed by Brian S

and uhh...
I was listening to the 3rd verse,,, and the drummer definitely says
"the dentist said my mom shouldve had an abortion" ... dentist?  the 
tooth cleaner... if you know for a fact what he says tell me 
(SideBrocks@aol.com)  if not, don't ****listen to the song at 2:16-2:19****


Bridge :
[ Tab from: http://www.guitartabs.cc/tabs/s/sum_41/fat_lip_bridge_tab.html ]
Guitar 1 : (clean tone)
   E5	    E/D#      C#m	 A5  	  	  	
e-------------------|------------------|-------------------|--------------------|
b-------------------|-----5------------|-------------------|-----5--------------|
g------9--------9---|------------------|------9--------9---|--------------------|
d----9---9----9---9-|---6---6------2---|----9---9----9---9-|---6---6------2-----|
a--7--------6-------|-4--------x-0---0-|--7--------6-------|-4--------x-0---0---|
D-------------------|------------------|-------------------|--------------------|
Guitar 2 : (clean tone)
e-------------------|------------------|-------------------|--------------------|
b-------------------|------------------|-------------------|--------------------|
g-------------------|------------------|-------------------|--------------------|
d-------------------|------------------|-------------------|--------------------|
a-------------------|------------------|-------------------|--------------------|
D-------------------|------------------|-------------------|--------------------|
Bass :
g-------------------|------------------|-------------------|--------------------|
d-------------------|------------------|-------------------|--------------------|
a-------------------|------------------|-------------------|---------------2h4--|
D-------------------|------------------|-------------------|--------------------|


Guitar 1 :
e-------------------|------------------|-------------------|---------------------|
b-------------------|-----5------------|-------------------|-----5---------------|
g------9--------9---|------------------|------9--------9---|---------------------|
d----9---9----9---9-|---6---6------2---|----9---9----9---9-|---6---6------2------|
a--7--------6-------|-4--------x-0---0-|--7--------6-------|-4--------x-0---0----|
D-------------------|------------------|-------------------|---------------------|
Guitar 2 :
e--0---0----2---2---|-0---0------0-----|--0---0----2---2---|-0---0-----0---------|
b----0---0----0---0-|---0---0h2----2-0-|----0---0----0---0-|---0---0h2-----------|
g-------------------|------------------|-------------------|-----------------0-0-|
d-------------------|------------------|-------------------|-------------/x\-0-0-|
a-------------------|------------------|-------------------|-------------/x\-0-0-|
D-------------------|------------------|-------------------|-------------/x\-0-0-|
Bass :									    w/ dist
g-------------------|------------------|-------------------|---------------------|
d-------------------|------------------|-------------------|---------------------|
a------------2vvvv--|-4vvvvvv--x-0-2h4-|------------2vvvvv-|-4vvvvvvv------------|
D--2--2vv-----------|------------------|-2--2vv------------|----------0-0-x\-----|


I was listening to the 3rd verse,,, and the drummer definitely says
"the dentist said my mom shouldve had an abortion" ... dentist?  the 
tooth cleaner... if you know for a fact what he says tell me 
(SideBrocks@aol.com)  if not, don't ****listen to the song at 2:16-2:19****

Comments