Sum 41 - Daves Posessed Hair Chords & Tabs

 

Daves Posessed Hair Chords & Tabs

Sum 41 Chords & Tabs

Version: 1 Type: Tab 0 ratings
1 star 2 stars 3 stars 4 stars 5 stars
comments

Daves Posessed Hair Tab

DAVE'S POSSESED HAIR - Sum 41

By:Kyle C.: savestheday32401@aol.com

intro
e|---------------------------------------------------------------------------|
B|---------------------------------------------------------------------------|
G|-4-----2-------------------------------------------------------------------|
D|-4-4-2-2-------------------------------------------------------------------|
A|-2-4-2-0-------------------------------------------------------------------|
E|---2-0---------------------------------------------------------------------|

verse 1  "ever get the feeling....heart attack"
e|---------------------------------------------------------------------------|
B|---------------------------------------------------------------------------|
G|-11--9--8--------11--9--8--------------------------------------------------|
D|-x---x--x--------x---x--x--------------------------------------------------|
A|-9---7--6--------9---7--6--------------------------------------------------|
E|---------------------------------------------------------------------------|

pre-chorus "you think you see.....dollar signs"
e|---------------------------------------------------------------------------|
B|---------------------------------------------------------------------------|
G|---------------------------------------------------------------------------|
D|--4--2-----4--2------------------------------------------------------------|
A|--4--2-----4--2------------------------------------------------------------|
E|--2--0-----2--0------------------------------------------------------------|

chorus "so sick and tasteless now....becomes the end again"
e|---------------------------------------------------------------------------|
B|---------------------------------------------------------------------------|
G|-8--6--9------8--6--9------------------------------------------------------|
D|-x--x--x--9---x--x--x--xx-9--xx-9------------------------------------------|
A|-6--4--7--x---6--4--7--xx-x--xx-x------------------------------------------|
E|----------7------------xx-7--xx-7------------------------------------------|
[ Tab from: http://www.guitartabs.cc/tabs/s/sum_41/daves_posessed_hair_tab.html ]
verse 2 "make up you mind.....falling far behind"
e|---------------------------------------------------------------------------|
B|---------------------------------------------------------------------------|
G|-11-9--8---11-13--9--------------------------------------------------------|
D|-x--x--x---x---x--x--------------------------------------------------------|
A|-9--7--6---9--11--7--------------------------------------------------------|
E|---------------------------------------------------------------------------|

"what i do is what i choose...would be fiction"
e|---------------------------------------------------------------------------|
B|---------------------------------------------------------------------------|
G|--7--------------7---------------------------------------------------------|
D|--x--7--2~~------x--7--4~~-------------------------------------------------|
A|--5--7--2~~------5--7--4~~-------------------------------------------------|
E|-----5--0~~---------5--2~~-------------------------------------------------|

pre rap part
e|---------------------------------------------------------------------------|
B|-----------------------7-7---7-7-7--7--7-7 7/0-----------------------------|
G|---------------------------------------------------------------------------|
D|-4-------------------------------------------------------------------------|
A|-4-------------------------------------------------------------------------|
E|-2-------------------------------------------------------------------------|
  pm............           pm        pm

e|---------------------------------------------------------------------------|
B|---------------------7-7p4-------------------------------------------------|
G|-------2---2-4--2-4--------6----------2--2-4-------------------------------|
D|-4---4-2---2-4--2-4-------------4---4-2--2-4-------------------------------|
A|-4---4-0---0-2--0-2-------------4---4-0--0-2----0-2-3-2-0-2-3-2-0----------|
E|-2---2--------------------------2---2---------2----------------------------|
                                                pm..................

"rock its what we're all about...shout it out"
e|---------------------------------------------------------------------------|
B|---------------------------------------------------------------------------|
G|---2-4-6-------------------------------------------------------------------|
D|-4-2-4-6-------------------------------------------------------------------|
A|-4-0-2-4-------------------------------------------------------------------|
E|-2-------------------------------------------------------------------------|
Comments