Sum 41 - Crazy Amanda Bunkface Chords & Tabs

 

Crazy Amanda Bunkface Chords & Tabs

Sum 41 Chords & Tabs

Version: 2 Type: Tab 0 ratings
1 star 2 stars 3 stars 4 stars 5 stars
comments

Crazy Amanda Bunkface Tab

Sum 41
Crazy Amanda Bunkface
All Killer No FIller

This is strait from the book, lots of fun 2 play, 100% correct

Drop D Tuning

Verse
------------------------------------------
------------------------------------------
------------------------------------------
---------------------------------55555555-
--555555555--77777777--99999999--33333333-
--555555555--77777777--99999999-----------
Pm........................................
Repeat twice

------------------------------------------------------------
------------------------------------------------------------
------------------------------------------------------------
----------------------------------------55-5-55-5-----------
-----55-5--55-5--55-5-55-5--33-3--33-3--33-3-33-3-----------
-----55-5--55-5--44-4-44-4--33-3--33-3----------------------
Pm   ..    ..    ..   ..    ..    ..    ..   ..

[ Tab from: http://www.guitartabs.cc/tabs/s/sum_41/crazy_amanda_bunkface_tab_ver_2.html ]
------------------------------------------------------------
------------------------------------------------------------
------------------------------------------------------------
------------------------------------------------------------
-----55-5--55-5--55-5-55-5--33333333-3-----------------------
-----55-5--55-5--44-4-44-4--33333333-3-----------------------
Pm   ..    ..    ..   ..    ........    


Chours
I don't wanna hear you bi*ch no more
--------------------------------------
--------------------------------------
--------------------------------------
-5X-----7-7777------------------------
-3X-5x--5-5555------------------------
----5x--------------------------------
Repeat 4 times


------------------------------------------------
------------------------------------------------
------------------------------------------------
----------------55555555--777-------------------
--5555-4-555555-33333333--333-------------------
--5555-4-555555---------------------------------

Then Verse
Chours

Interlude

----------------------------------------
----------------------------------------
----------------------------------------
----------------------------------------
----0-2-0-2-0-2-0-2-0-2-0-2-0-2-0-4-5---
----------2-------2-------2-------4-4---
Pm  .....   .....   .....   .....
Repeat 8 times

-----------------
-----------------
-----------------
-----------------
-0000-4-5--------
-0000-4-5--------
 .... 


Thats about it! Have fun!
BluntNinE
Comments