Sum 41 - Crazy Amanda Bunkface Chords & Tabs

 

Crazy Amanda Bunkface Chords & Tabs

Sum 41 Chords & Tabs

Version: 1 Type: Tab 0 ratings
1 star 2 stars 3 stars 4 stars 5 stars
comments

Crazy Amanda Bunkface Tab

#----------------------------------PLEASE NOTE--------------------------------#
#This file is the author's own work and represents their interpretation of the#
#song. You may only use this file for private study, scholarship, or research.#
#-----------------------------------------------------------------------------#
#-- File created with Instab - http://www.pconline.com/~smcarey/instab.html --#
#-----------------------------------------------------------------------------#

Author/Artist: Sum-41
Title: Crazy Amanda Bunkface (Live)
Album: All Killer No Filler
Transcribed by: Outlaw_Chris
Email: Vegeta@cfl.rr.com

This is the live version. Download Crazy Amanda Bunkface live on Morpheus or Kazaa. 
This is played in drop d tuning. If you don't want to do it. Just play a fret higher.
Its easier drop d but still. 

------------------------------------------------------------------------------
------------------------------------------------------------------------------
-----------------------------4-----------------5------------------------------
----5---------7--------------4-----------------5------------------------------
----5---------7--------------2-----------------3------------------------------
----3---------5---------------------------------------------------------------
 "Don't know what you really got, its hard to say and not pretend"            

------------------------------------------------------------------------------
------------------------------------------------------------------------------
--------------------44-4------55-5--------------------------------------------
--55-5-----77-7-----44-4------55-5--------------------------------------------
--55-5-----77-7-----22-2------33-3--------------------------------------------
--33-3-----55-5---------------------------------------------------------------
 "Im happy to be, only all that you see"  *You know when to palm mute*        

----------------------------------------|-------------------------------------
----------------------------------------|-------------------------------------
----555------------777777---------------|-------------55555555--777-----------
----555-----555----777777---------------|-55555555555-55555555--777-----------
----333-----555----555555---------------|-55555555555-33333333--555-----------
------------333-------------------------|-33333333333-------------------------
 "I don't wanna hear you bitch no more"   Bridge after chorus                 

------------------------------------------------------------------------------
------------------------------------------------------------------------------
--------------------------4----------------5----------------------------------
--5---------7-------------4----------------5----------------------------------
--5---------7-------------2----------------3----------------------------------
--3---------5-----------------------------------------------------------------
 "Whats so hard about good byes, Im sorry im not just as keen"                
[ Tab from: http://www.guitartabs.cc/tabs/s/sum_41/crazy_amanda_bunkface_tab.html ]
------------------------------------------------------------------------------
------------------------------------------------------------------------------
--------------------------44444444--55555555----------------------------------
--55555555-----77777777---44444444--55555555----------------------------------
--55555555-----77777777---22222222--33333333----------------------------------
--33333333-----55555555-------------------------------------------------------
 "Im happy to be, only all that you see"                                      

----------------------------------|-------------------------------------------
----------------------------------|-------------------------------------------
----------------------------------|-----10\1------10\1------10\1--------------
-----2------2-------2--------4-5--|-----10\1------10\1------10\1-------4-5----
-000-2--000-2---000-2--0000--4-5--|-000-8-\1--000-8-\1--000-8-\1--0000-4-5----
-000----000-----000----0000--2-3--|-000-------000-------000-------0000-2-3----
 P.m    P.m.    P.m.   P.m.         P.m.      P.m.      P.m.      P.m.        

----------------------------|-------------------------------------------------
----------------------------|-------------------------------------------------
----------------------------|----10\1-----10\1-----10\1-----------------------
----2-----2----2------4-5---|----10\1-----10\1-----10\1--------4-5------------
-00-2--00-2-00-2-0000-4-5---|-00-8-\1--00-8-\1--00-8-\1---0000-4-5------------
-00----00---00---0000-2-3---|-00-------00-------00--------0000-2-3------------
 Pm    Pm   Pm   P.m.         Pm       Pm       Pm        P.m.                

------------------------------------|-----------------------------------------
------------------------------------|-----------------------------------------
------------------------------------|-555555----------------------------------
------4-5-------4-5-------4-5555555-|-555555-555555--777777--555555-----------
-0000-4-5--0000-4-5--0000-4-5555555-|-333333-555555--777777--555555-----------
-0000-2-3--0000-2-3--0000-2-3333333-|--------333333--555555--333333-----------
 P.m.      P.m.      P.m.             "Im on my way, can't you see thats..."  

------------------------------------------------------------------------------
------------------------------------------------------------------------------
--7---5----------7---5----------7---5-----------------------------------------
--7---5-----5----7---5-----5----7---5-----555555------------------------------
--5---3-----5----5---3-----5----5---3-----555555------------------------------
------------3--------------3--------------333333------------------------------
 "See thats the, See thats the, See thats the.........."                      

------------------------------------------------------------------------------
------------------------------------------------------------------------------
--555------77777--------------------------------------------------------------
--555-555--77777--------------------------------------------------------------
--333-555--55555--------------------------------------------------------------
------333---------------------------------------------------------------------
 "Lies that I could take..." Ending Chorus      
Comments