Sum 41 - Crazy Amanda Bunkface Chords & Tabs

 

Crazy Amanda Bunkface Chords & Tabs

Sum 41 Chords & Tabs

Version: 1 Type: Bass Tab 0 ratings
1 star 2 stars 3 stars 4 stars 5 stars
comments

Crazy Amanda Bunkface Bass Tab

   
Sum 41
"Crazy Amanda Bunkface"
Tabbed By Adam

This song is in Drop-D tuning (DADG).  Here ya go...

VERSE 1 (No bass)

CHORUS
G----------------------------|
D----------------------------|
A--3-----------5--5--555555--| (x4)
D------5---5-----------------|

AFTER CHORUS
G-------------------------------------|
D-------------------------------------|
A------------------33333333333--555---| (x2)
D--5-5-5-4-5-55555--------------------|

G-----|
D-----|
A-----|
D--5/-|

VERSE 2
Only guitar for a bit, then
G---------------------------------------|
D---------------------------------------|
A------------00000000-22222222-33333333-| (x1)
D--55555555-----------------------------|

G---------------------------------------|
D---------------------------------------|
A------------------------------33333333-| (x1)
D--55555555--44444444-33333333----------|
[ Tab from: http://www.guitartabs.cc/tabs/s/sum_41/crazy_amanda_bunkface_btab.html ]
G---------------------------------|
D---------------------------------|
A---------------------------------| (x1)
D--55555555--44444444---3--33--33-|

CHORUS

BREAK
G--------------------------------------------------|
D--------------------------------------------------|
A--------------------------------------------------| (x4)
D--0-2-0--2----0-2-0--2----0-2-0--2---0-2-0----4-5-|

G---------------------------------|
D---------------------------------|
A---------------------------------|
D--4-5---4-5---4-5---55555555555--|

("I'm on my way...")
G-----------------------------------|
D-----------------------------------|
A-----------------------------------| (x4)
D-0000000-22222222-55555555-7777777-|

("See that through...")
G---------------|
D---------------|
A---------------|
D-7777777777777-|

LAST CHORUS
G----------------------------|
D----------------------------|
A--5-----------7--7--777777--| (x4)
D------7---7-----------------|

END ON
G-----|
D-----|
A-----|
D--7/-|

Questions, comments, requests...E-Mail me at
mystery7punk@hotmail.com
====
Comments