Sum 41 - Bitter End Chords & Tabs

 

Bitter End Chords & Tabs

Sum 41 Chords & Tabs

Version: 2 Type: Bass Tab 0 ratings
1 star 2 stars 3 stars 4 stars 5 stars
comments

Bitter End Bass Tab

   
TUNING: All dropped half a step. (D# G# C# F#)


INTRO   x2
||-----------|-----------------------|----------|
||o----------|-----------------------|----------|
||o----------|-7-7-7-7-7--5-5-5-5-5--|-4--------|
||--2--------|-----------------------|----------|

|---------------------------|
|---------------------------|
|---------------------------|        
|-5-5----4-4-----2----------|      


REST



PRE-VERSE   x4
||------------------|------------------|
||o-----------------|-----------------o|
||o-----------------|-----5-------4---o|  
||--0-2-3/2-0-2-3/2-|-0-2---2-0-2---2--|


REST


VERSE
||------------------|----------------|-----------------|
||o-----------------|----------------|-----------------|
||o-----------------|-0-0-0-3-3-3-2--|-----------3-2-2-|
||--2-2-2-2-2-2-2-2-|----------------|-2-2-2-2-2-------|

|------------------|
|-----------------o|  x2
|-----------0-0-0-o|
|-2-2-2-2-2--------|

||--------------|-------------|----------------|
||o-------------|-------------|---------4-3----|
||o-9-----7-----|-5-----0--0--|-4-4-4-4--------|
||--------------|-------------|----------------|

||---------------||
||---------------||  x2
||---------------||
||-2-2----2-2----||



GUITAR BREAK
||----------|----------|----------|------------||
||----------|----------|----------|------------||
||----------|----------|----------|------------||
||-2--------|-0--------|-5--------|-4----3--3--||



VERSE 2
||------------------|----------------|-----------------|
||o-----------------|----------------|-----------------|
||o-----------------|-0-0-0-3-3-3-2--|-----------3-2-2-|
||--2-2-2-2-2-2-2-2-|----------------|-2-2-2-2-2-------|




|------------------|
|-----------------o|  x2
|-----------0-0-0-o|
|-2-2-2-2-2--------|

||--------------|-------------|----------------|
||o-------------|-------------|---------4-3----|
||o-9-----7-----|-5-----0--0--|-4-4-4-4--------|
||--------------|-------------|----------------|

||---------------||
||---------------||  x2
||---------------||
||-2-2----2-2----||


[ Tab from: http://www.guitartabs.cc/tabs/s/sum_41/bitter_end_btab_ver_2.html ]
PRE-SOLO   x4
||-----------|--------------|----------|---------------|
||o----------|--------------|----------|--------------o|
||o----------|--------------|-4--------|-(4)----------o|
||--2--------|-(2)------2-2-|----------|--------0-0-0--|




DURING GUITAR SOLO    x4
||------------------|----------------|-----------------|-----------------||
||o-----------------|----------------|-----------------|----------------o||
||o-----------------|-0-0-0-3-3-3-2--|-----------3-2-2-|-----------0----o|| 
||--2-2-2-2-2-2-2-2-|----------------|-2-2-2-2-2-------|-2-2-2-2-2-------||



VERSE 3
||------------------|----------------|-----------------|
||o-----------------|----------------|-----------------|
||o-----------------|-0-0-0-3-3-3-2--|-----------3-2-2-|
||--2-2-2-2-2-2-2-2-|----------------|-2-2-2-2-2-------|

|------------------|
|-----------------o|
|-----------0-0-0-o|
|-2-2-2-2-2--------|

||------------------|------------------|
||o-----------------|-----------------o|
||o-----------------|-----5-------4---o|  x2
||--0-2-3/2-0-2-3/2-|-0-2---2-0-2---2--|

||------------------|----------------|-----------------|
||o-----------------|----------------|-----------------|
||o-----------------|-0-0-0-3-3-3-2--|-----------3-2-2-|
||--2-2-2-2-2-2-2-2-|----------------|-2-2-2-2-2-------|

|------------------|
|-----------------o|  x2
|-----------0-0-0-o|
|-2-2-2-2-2--------|





||--------------|-------------|----------------|
||o-------------|-------------|---------4-3----|
||o-9-----7-----|-5-----0--0--|-4-4-4-4--------|
||--------------|-------------|----------------|

||---------------||
||---------------||  x2
||---------------||
||-2-2----2-2----||

OUTRO
||------------------|------------------|
||o-----------------|-----------------o|
||o-----------------|-----5-------4---o|  x4
||--0-2-3/2-0-2-3/2-|-0-2---2-0-2---2--|

||------------------|----------------|-----------------|------------------||
||o-----------------|----------------|-----------------|-----------------o||
||o-------------2---|----------------|-------------2---|-----------------o||
||--0-0-2-0-3-0---0-|-3-0-2-0-3-0-2--|-0-0-2-0-3-0---0-|-3-0-2-0-3----3---||

|------------------|-----------------|-----------------*|
|------------------|-----------------|-----------------*|
|------------------|-----------------|-----------------*|
|-3-0-2-0-3----3s2-|-2-------5-------|-4-------3-------*|



ok, done. this is my first tab, and i know that a few of the parts are wrong.
i encourage you to fix it and post it when your done. thnx.
Comments