Sum 41 - Bitter End Chords & Tabs

 

Bitter End Chords & Tabs

Sum 41 Chords & Tabs

Version: 1 Type: Bass Tab 0 ratings
1 star 2 stars 3 stars 4 stars 5 stars
comments

Bitter End Bass Tab

   
this is my first tab and it took me a long time so...tell me if its good thanks um..
Don't Get mad im because this is me its probably all wrong but, you never know.
Tell me if its good or not.
Tuning is regular.

G-----------------|
D-----------------|
A-----------------|
E-0----0----66-55-|

G---------------------------|
D---------------------------|
A---------------------------|
E--0-0-6--0-0-6-0-0-7-0-0-7-|

G---------|
D---------|
A---------|
E---6-7-8-|

G-----------------------------|
D-----------------------------|
A-----------------------------|
E-66-7-6-66-8-7-66-7-6-777-8--| x2

G--------------------------------|
D--------------------------------|
A--------------------------------|
E-6-7-8----8------7-----6------5-|

G----
D----
A----
E-776

G---------|
D---------|
A---------|
E-8-7-6-5-|
[ Tab from: http://www.guitartabs.cc/tabs/s/sum_41/bitter_end_btab.html ]
G--------------------------------|
D--------------------------------|
A--------------------------------|
E-66-7-6--66-8-7--66-7-6--777-6--| x2

G-------------------------|
D-------------------------|
A-------------------------|
E-8------7------6-------5-|

G-------------------------------------------------------------|
D-------------------------------------------------------------|
A-------------------------------------------------------------|
E-6-5-6-7-(rest)-77-6----7---8-7-6-----7--6---8---66----77-68-|

G--------------------------------|
D--------------------------------|
A--------------------------------|
E-66-7-6--66-8-7--66-7-6--777-8--| x4

G------------------|
D------------------|
A------------------|
E-6-7-8-8--7--6--5-|


G-----------------------------|
D-----------------------------|
A-----------------------------|
E-66-7-6-66-8-7-66-7-6-777-8--| x2

G-------------------|
D-------------------|
A-------------------|
E-000-67-0-6-7-6----| x3

G--------|
D--------|
A--------|
E-6-7-55-|
Comments