Sum 41 - Anic Chords & Tabs

 

Anic Chords & Tabs

Sum 41 Chords & Tabs

Version: 4 Type: Tab 0 ratings
1 star 2 stars 3 stars 4 stars 5 stars
comments

Anic Tab

   
Band:Sum 41
Song:A.N.I.C.
Album:Does This Look Infected?
Tuning:Standard
(E-A-D-G-B-E)
B=bend
/=slide

Intro 

E-------------------------------------------------------------------------------
B----------x--0-0---------------------------------------------------------------
G-------------------------------------------------------------------------------
D--3-3-3-3--------------------------4-4-----------------------------------------
A--3-3-3-3--------------------------4-4-----------------------------------------
E--2-2-2-2---------F*CKING-SH*T-----2-2-----------------------------------------

Chorus 
[ Tab from: http://www.guitartabs.cc/tabs/s/sum_41/anic_tab_ver_4.html ]
E-------------------------------------------------------------------------------
B-------------------------------------------------------------------------------
G--------------------7-7-7-7--4-4-4-4-------------------------------------------
D--4-4-4-4--7-7-7-7--7-7-7-7--4-4-4-4-------------------------------------------
A--4-4-4-4--7-7-7-7--5-5-5-5--2-2-2-2-------------------------------------------
E--2-2-2-2--5-5-5-5-------------------------------------------------------------

Verse 

E-------------------------------------------------------------------------------
B-------------------------------------------------------------------------------
G------------------------------------5------------------------------------------
D--2-x-x-x----2-x-x-x----2-x-x-x-----5--5---------------------------------------
A--2-x-x-x----2-x-x-x----2-x-x-x-----3--5---------------------------------------
E--0-x-x-x----0-x-x-x----0-x-x-x--------3---------------------------------------


End

E--------------7b---------------------------------------------------------------
B---------------------12------12/---0-------------------------------------------
G-------------------------------------------------------------------------------
D-------------------------------------------------------------------------------
A-------------------------------------------------------------------------------
E-------------------------------------------------------------------------------
Comments