Sum 41 - Angels With Dirty Faces Chords & Tabs

 

Angels With Dirty Faces Chords & Tabs

Sum 41 Chords & Tabs

Version: 1 Type: Tab 3 ratings
1 star 2 stars 3 stars 4 stars 5 stars
comments

Angels With Dirty Faces Tab

         Tabbed By Coconut aka delta.
After first listening to this song by this band i began to tab it immideatily. This is Dave's lead guitar tab, the back up guitar is at the bottom.



Angels With Dirty Faces                             

Dave
                                                                          
|----------------------|-----------------------|----------------------|
|----------------------|-----------------------|----------------------|
|----------------------|-----------------------|----------------------|
|-------5--2----3------|-------5--2----3----2--|-------5--2----3------|
|----------------------|--1--------------------|----------------------|
|--0-------------------|-----------------------|--0-------------------|

listen to the song to get this beat right.
                                                                      
----------------------|----------------------|-----------------------|
----------------------|----------------------|-----------------------|
----------------------|----------------------|-----------------------|
-------2--3----2------|-------5--2----3------|-------5--2----3----2--|
--0-------------------|----------------------|--1--------------------|
----------------------|--0-------------------|-----------------------|


                                                                     
----------------------|----------------------|----------------------|
----------------------|----------------------|----------------------|
----------------------|----------------------|----------------------|
-------5--2----3------|-------2--3----2------|----------------------|
----------------------|--0-------------------|--0--0------0--0------|
--0-------------------|----------------------|--0--0------0--0------|


                                                                           
----------------------|--------------------------|------------------------|
----------------------|--------------------------|------------------------|
----------------------|--------------------------|------------------------|
--3--3------2--2------|--------------------------|--3-3-3------2-2-2------|
--1--1------0--0----|------0-0-0-0-----0-0-0-0-|--1-1-1------0-0-0------|
----------------------|------0-0-0-0-----0-0-0-0-|------------------------|


                                                      
--------------------------|--------------------------|
--------------------------|--------------------------|
--------------------------|--------------------------|
--------------------------|--------------------------|
--0-0-0-----0-0-0-0-----0-|--0-0-0-----0-0-0-0-----0-|
--0-0-0-----0-0-0-0-----0-|--0-0-0-----0-0-0-0-----0-|


                                                       
--------------------------|---------------------------|
--------------------------|---------------------------|
--------------------------|---------------------------|
--------------------------|---------------------------|
--0-0-0-----0-0-0-0-----0-|--0-0-0-----0-0-0-3-3-3----|
--0-0-0-----0-0-0-0-----0-|--0-0-0-----0-0-0-3-3-2----|


                                                                      
----------------------------------|----------------------------------|
----------------------------------|----------------------------------|
----------------------------------|----------------------------------|
------------------------------5-5-|------------------------------5-5-|
--0-0-0-0-8-8-7-7-3-3-3-3-3-3-3-3-|--0-0-0-0-8-8-7-7-3-3-3-3-3-3-3-3-|
--0-0-0-0-8-8-7-7-3-3-3-3-3-3-----|--0-0-0-0-8-8-7-7-3-3-3-3-3-3-----|


                                                                      
----------------------------------|----------------------------------|
----------------------------------|----------------------------------|
----------------------------------|----------------------------------|
------------------------------5-5-|------------------------------5-5-|
--0-0-0-0-8-8-7-7-3-3-3-3-3-3-3-3-|--0-0-0-0-8-8-7-7-3-3-3-3-3-3-3-3-|
--0-0-0-0-8-8-7-7-3-3-3-3-3-3-----|--0-0-0-0-8-8-7-7-3-3-3-3-3-3-----|


                                         
--------------------|-------------------|
--------------------|-------------------|
--3--------------3--|--5----------------|
--3--------------3--|--5----------------|
--1--------------1--|--3----------------|
--------------------|-------------------|


                                               
----------------------------------------------|
----------------------------------------------|
--14-14-14-14-10-10-10-10-12-12-12-12-5-5-5-5-|
----------------------------------------------|
--12-12-12-12-8--8--8--8--10-10-10-10-3-3-3-3-|
----------------------------------------------|


                                      
-------------------------------------|
-------------------------------------|
--7-7-7-7-9-9-9-9-10-10-10-9-9-9-9-9-|
-------------------------------------|
--5-5-5-5-7-7-7-7-8--8--8--7-7-7-7-7-|
-------------------------------------|


                                               
----------------------------------------------|
----------------------------------------------|
--14-14-14-14-10-10-10-10-12-12-12-12-5-5-5-5-|
----------------------------------------------|
--12-12-12-12-8--8--8--8--10-10-10-10-3-3-3-3-|
----------------------------------------------|


                                                                                
-------------------------------------|--------------------|--------------------|
-------------------------------------|--------------------|--------------------|
--7-7-7-7-9-9-9-9-10-10-10-9-9-9-9-9-|--------------------|--------------------|
-------------------------------------|--0--------2--------|--3--------5--------|
--5-5-5-5-7-7-7-7-8--8--8--7-7-7-7-7-|--0--------3--------|--3--------5--------|
-------------------------------------|--0--------2--------|--3--------5--------|


                                                                             
--------------------|--------------------|----------------------------------|
--------------------|--------------------|----------------------------------|
--------------------|--------------------|----------------------------------|
--0--------2--------|--3--------5--------|------------------------------5-5-|
--0--------3--------|--3--------5--------|--0-0-0-0-8-8-7-7-3-3-3-3-3-3-3-3-|
--0--------2--------|--3--------5--------|--0-0-0-0-8-8-7-7-3-3-3-3-3-3-----|


                                                                      
----------------------------------|----------------------------------|
----------------------------------|----------------------------------|
----------------------------------|----------------------------------|
------------------------------5-5-|------------------------------5-5-|
--0-0-0-0-8-8-7-7-3-3-3-3-3-3-3-3-|--0-0-0-0-8-8-7-7-3-3-3-3-3-3-3-3-|
--0-0-0-0-8-8-7-7-3-3-3-3-3-3-----|--0-0-0-0-8-8-7-7-3-3-3-3-3-3-----|


                                                                            
----------------------------------|--------------------|-------------------|
----------------------------------|--------------------|-------------------|
----------------------------------|--3--------------3--|--5----------------|
------------------------------5-5-|--3--------------3--|--5----------------|
--0-0-0-0-8-8-7-7-3-3-3-3-3-3-3-3-|--1--------------1--|--3----------------|
--0-0-0-0-8-8-7-7-3-3-3-3-3-3-----|--------------------|-------------------|


                                               
----------------------------------------------|
----------------------------------------------|
--14-14-14-14-10-10-10-10-12-12-12-12-5-5-5-5-|
----------------------------------------------|
--12-12-12-12-8--8--8--8--10-10-10-10-3-3-3-3-|
----------------------------------------------|


                                      
-------------------------------------|
-------------------------------------|
--7-7-7-7-9-9-9-9-10-10-10-9-9-9-9-9-|
-------------------------------------|
--5-5-5-5-7-7-7-7-8--8--8--7-7-7-7-7-|
-------------------------------------|


                                               
----------------------------------------------|
----------------------------------------------|
--14-14-14-14-10-10-10-10-12-12-12-12-5-5-5-5-|
----------------------------------------------|
--12-12-12-12-8--8--8--8--10-10-10-10-3-3-3-3-|
----------------------------------------------|


                                                             
-------------------------------------|----------------------|
-------------------------------------|----------------------|
--7-7-7-7-9-9-9-9-10-10-10-9-9-9-9-9-|----------------------|
-------------------------------------|----------------------|
--5-5-5-5-7-7-7-7-8--8--8--7-7-7-7-7-|--0-------------0-0-0-|
-------------------------------------|--0-------------0-0-0-|


                                                                  
----------------------|----------------------|-------------------|
----------------------|----------------------|-------------------|
----------------------|----------------------|-------------------|
----------------------|----------------------|-------------------|
--0-------------0-0-0-|--0-------------0-0-0-|--0----------------|
--0-------------0-0-0-|--0-------------0-0-0-|--0----------------|


                                                                                
----------------------------------|--------------------------------------------|
----------------------------------|--------------------------------------------|
----------------------------------|--------------------------------------------|
----------------------------------|--------------------------------------------|
--0-0-0-0-0-0-0-0-0-0-0-0-0-0-0-0-|--0--0--0--0--0--0--0-0-0-0-0-0-0-0-0-0-0-0-|
--0-0-0-0-0-0-0-0-0-0-0-0-0-0-0-0-|--0--0--0--0--0--0--0-0-0-0-0-0-0-0-0-0-0-0-|


                                               
----------------------------------------------|
----------------------------------------------|
--14-14-14-14-10-10-10-10-12-12-12-12-5-5-5-5-|
----------------------------------------------|
--12-12-12-12-8--8--8--8--10-10-10-10-3-3-3-3-|
----------------------------------------------|


                                      
-------------------------------------|
-------------------------------------|
--7-7-7-7-9-9-9-9-10-10-10-9-9-9-9-9-|
-------------------------------------|
--5-5-5-5-7-7-7-7-8--8--8--7-7-7-7-7-|
-------------------------------------|


                                               
----------------------------------------------|
----------------------------------------------|
--14-14-14-14-10-10-10-10-12-12-12-12-5-5-5-5-|
----------------------------------------------|
--12-12-12-12-8--8--8--8--10-10-10-10-3-3-3-3-|
----------------------------------------------|


                                      
-------------------------------------|
-------------------------------------|
--7-7-7-7-9-9-9-9-10-10-10-9-9-9-9-9-|
-------------------------------------|
--5-5-5-5-7-7-7-7-8--8--8--7-7-7-7-7-|
-------------------------------------|


                                               
----------------------------------------------|
----------------------------------------------|
--14-14-14-14-10-10-10-10-12-12-12-12-5-5-5-5-|
----------------------------------------------|
--12-12-12-12-8--8--8--8--10-10-10-10-3-3-3-3-|
----------------------------------------------|


                                      
-------------------------------------|
-------------------------------------|
--7-7-7-7-9-9-9-9-10-10-10-9-9-9-9-9-|
-------------------------------------|
--5-5-5-5-7-7-7-7-8--8--8--7-7-7-7-7-|
-------------------------------------|

[ Tab from: http://www.guitartabs.cc/tabs/s/sum_41/angels_with_dirty_faces_tab.html ]
                                               
----------------------------------------------|
----------------------------------------------|
--14-14-14-14-10-10-10-10-12-12-12-12-5-5-5-5-|
----------------------------------------------|
--12-12-12-12-8--8--8--8--10-10-10-10-3-3-3-3-|
----------------------------------------------|


                                                             
-------------------------------------|----------------------|
-------------------------------------|----------------------|
--7-7-7-7-9-9-9-9-10-10-10-9-9-9-9-9-|----------------------|
-------------------------------------|----------------------|
--5-5-5-5-7-7-7-7-8--8--8--7-7-7-7-7-|--0--0------0--0------|
-------------------------------------|--0--0------0--0------|


                       
---------------------|
---------------------|
---------------------|
------------0--------|
--0--0------0--------|
--0--0------0--------|


Now here is the backup Guitar tab (also does vocals.)



                                                                  
----------------------------------|------------------------------|
----------------------------------|------------------------------|
------10-10-10-10-----10-10-10-10-|------12-12-12-12-----9-9-9-9-|
----------------------------------|------------------------------|
------8--8--8--8------8--8--8--8--|------10-10-10-10-----7-7-7-7-|
----------------------------------|------------------------------|


                                                        
------------------------|------------------------------|
------------------------|------------------------------|
--10--------10--10------|------12-12-12-12-----9-9-9-9-|
------------------------|------------------------------|
--8---------8---8-------|------10-10-10-10-----7-7-7-7-|
------------------------|------------------------------|


                                                                              
--------------------------------------|--------------------------------------|
--------------------------------------|--------------------------------------|
--7-7-7-7-7-7-7-7-7-7-10-10-9-9-10-10-|--7-7-7-7-7-7-7-7-7-7-10-10-9-9-10-10-|
--------------------------------------|--------------------------------------|
--5-5-5-5-5-5-5-5-5-5-8--8--7-7-8--8--|--5-5-5-5-5-5-5-5-5-5-8--8--7-7-8--8--|
--------------------------------------|--------------------------------------|


                                                                         
--------------------------------------|---------------------------------|
--------------------------------------|---------------------------------|
--7-7-7-7-7-7-7-7-7-7-10-10-9-9-10-10-|--7-7-7-7-7-7-7-7-7-7-10-10-9----|
--------------------------------------|---------------------------------|
--5-5-5-5-5-5-5-5-5-5-8--8--7-7-8--8--|--5-5-5-5-5-5-5-5-5-5-8--8--7----|
--------------------------------------|---------------------------------|


                                                                      
----------------------------------|----------------------------------|
----------------------------------|----------------------------------|
----------------------------------|----------------------------------|
------------------------------5-5-|------------------------------5-5-|
--0-0-0-0-8-8-7-7-3-3-3-3-3-3-3-3-|--0-0-0-0-8-8-7-7-3-3-3-3-3-3-3-3-|
--0-0-0-0-8-8-7-7-3-3-3-3-3-3-----|--0-0-0-0-8-8-7-7-3-3-3-3-3-3-----|


                                                                      
----------------------------------|----------------------------------|
----------------------------------|----------------------------------|
----------------------------------|----------------------------------|
------------------------------5-5-|------------------------------5-5-|
--0-0-0-0-8-8-7-7-3-3-3-3-3-3-3-3-|--0-0-0-0-8-8-7-7-3-3-3-3-3-3-3-3-|
--0-0-0-0-8-8-7-7-3-3-3-3-3-3-----|--0-0-0-0-8-8-7-7-3-3-3-3-3-3-----|


                                                                            
--------------------|-------------------|----------------------------------|
--------------------|-------------------|----------------------------------|
--3--------------3--|--5----------------|----------------------------------|
--3--------------3--|--5----------------|--0-0-0-0-0-0-0-0-3-3-3-3-3-3-3-3-|
--1--------------1--|--3----------------|--0-0-0-0-0-0-0-0-3-3-3-3-3-3-3-3-|
--------------------|-------------------|--0-0-0-0-0-0-0-0-3-3-3-3-3-3-3-3-|


                                                                         
-------------------------------------|----------------------------------|
-------------------------------------|----------------------------------|
-------------------------------------|----------------------------------|
--8-8-8-8-8-8-8-8-10-10-10-7-7-7-3-3-|--0-0-0-0-0-0-0-0-3-3-3-3-3-3-3-3-|
--8-8-8-8-8-8-8-8-10-10-10-7-7-7-3-3-|--0-0-0-0-0-0-0-0-3-3-3-3-3-3-3-3-|
--8-8-8-8-8-8-8-8-10-10-10-7-7-7-3-3-|--0-0-0-0-0-0-0-0-3-3-3-3-3-3-3-3-|


                                                                                
-------------------------------------|--------------------|--------------------|
-------------------------------------|--------------------|--------------------|
-------------------------------------|--------------------|--------------------|
--8-8-8-8-8-8-8-8-10-10-10-7-7-7-3-3-|--0--------2--------|--3--------5--------|
--8-8-8-8-8-8-8-8-10-10-10-7-7-7-3-3-|--0--------3--------|--3--------5--------|
--8-8-8-8-8-8-8-8-10-10-10-7-7-7-3-3-|--0--------2--------|--3--------5--------|


                                                                             
--------------------|--------------------|----------------------------------|
--------------------|--------------------|----------------------------------|
--------------------|--------------------|----------------------------------|
--0--------2--------|--3--------5--------|------------------------------5-5-|
--0--------3--------|--3--------5--------|--0-0-0-0-8-8-7-7-3-3-3-3-3-3-3-3-|
--0--------2--------|--3--------5--------|--0-0-0-0-8-8-7-7-3-3-3-3-3-3-----|


                                                                      
----------------------------------|----------------------------------|
----------------------------------|----------------------------------|
----------------------------------|----------------------------------|
------------------------------5-5-|------------------------------5-5-|
--0-0-0-0-8-8-7-7-3-3-3-3-3-3-3-3-|--0-0-0-0-8-8-7-7-3-3-3-3-3-3-3-3-|
--0-0-0-0-8-8-7-7-3-3-3-3-3-3-----|--0-0-0-0-8-8-7-7-3-3-3-3-3-3-----|


                                                                            
----------------------------------|--------------------|-------------------|
----------------------------------|--------------------|-------------------|
----------------------------------|--3--------------3--|--5----------------|
------------------------------5-5-|--3--------------3--|--5----------------|
--0-0-0-0-8-8-7-7-3-3-3-3-3-3-3-3-|--1--------------1--|--3----------------|
--0-0-0-0-8-8-7-7-3-3-3-3-3-3-----|--------------------|-------------------|


                                                                         
----------------------------------|-------------------------------------|
----------------------------------|-------------------------------------|
----------------------------------|-------------------------------------|
--0-0-0-0-0-0-0-0-3-3-3-3-3-3-3-3-|--8-8-8-8-8-8-8-8-10-10-10-7-7-7-3-3-|
--0-0-0-0-0-0-0-0-3-3-3-3-3-3-3-3-|--8-8-8-8-8-8-8-8-10-10-10-7-7-7-3-3-|
--0-0-0-0-0-0-0-0-3-3-3-3-3-3-3-3-|--8-8-8-8-8-8-8-8-10-10-10-7-7-7-3-3-|


                                                                         
----------------------------------|-------------------------------------|
----------------------------------|-------------------------------------|
----------------------------------|-------------------------------------|
--0-0-0-0-0-0-0-0-3-3-3-3-3-3-3-3-|--8-8-8-8-8-8-8-8-10-10-10-7-7-7-3-3-|
--0-0-0-0-0-0-0-0-3-3-3-3-3-3-3-3-|--8-8-8-8-8-8-8-8-10-10-10-7-7-7-3-3-|
--0-0-0-0-0-0-0-0-3-3-3-3-3-3-3-3-|--8-8-8-8-8-8-8-8-10-10-10-7-7-7-3-3-|


                                                                     
----------------------|----------------------|----------------------|
----------------------|----------------------|----------------------|
----------------------|----------------------|----------------------|
----------------------|----------------------|----------------------|
--0-------------0-0-0-|--0-------------0-0-0-|--0-------------0-0-0-|
--0-------------0-0-0-|--0-------------0-0-0-|--0-------------0-0-0-|


                                                       
-------------------|----------------------------------|
-------------------|----------------------------------|
-------------------|----------------------------------|
-------------------|----------------------------------|
--0----------------|--0-0-0-0-0-0-0-0-0-0-0-0-0-0-0-0-|
--0----------------|--0-0-0-0-0-0-0-0-0-0-0-0-0-0-0-0-|


                                                                        
------------------------------------|----------------------------------|
------------------------------------|----------------------------------|
------------------------------------|----------------------------------|
------------------------------------|--0-0-0-0-0-0-0-0-3-3-3-3-3-3-3-3-|
--0--0--0--0--0--0--0-0-0-0-0-0-----|--0-0-0-0-0-0-0-0-3-3-3-3-3-3-3-3-|
--0--0--0--0--0--0--0-0-0-0-0-0-24/-|--0-0-0-0-0-0-0-0-3-3-3-3-3-3-3-3-|


                                                                         
-------------------------------------|----------------------------------|
-------------------------------------|----------------------------------|
-------------------------------------|----------------------------------|
--8-8-8-8-8-8-8-8-10-10-10-7-7-7-3-3-|--0-0-0-0-0-0-0-0-3-3-3-3-3-3-3-3-|
--8-8-8-8-8-8-8-8-10-10-10-7-7-7-3-3-|--0-0-0-0-0-0-0-0-3-3-3-3-3-3-3-3-|
--8-8-8-8-8-8-8-8-10-10-10-7-7-7-3-3-|--0-0-0-0-0-0-0-0-3-3-3-3-3-3-3-3-|


                                                                         
-------------------------------------|----------------------------------|
-------------------------------------|----------------------------------|
-------------------------------------|----------------------------------|
--8-8-8-8-8-8-8-8-10-10-10-7-7-7-3-3-|--0-0-0-0-0-0-0-0-3-3-3-3-3-3-3-3-|
--8-8-8-8-8-8-8-8-10-10-10-7-7-7-3-3-|--0-0-0-0-0-0-0-0-3-3-3-3-3-3-3-3-|
--8-8-8-8-8-8-8-8-10-10-10-7-7-7-3-3-|--0-0-0-0-0-0-0-0-3-3-3-3-3-3-3-3-|


                                                                         
-------------------------------------|----------------------------------|
-------------------------------------|----------------------------------|
-------------------------------------|----------------------------------|
--8-8-8-8-8-8-8-8-10-10-10-7-7-7-3-3-|--0-0-0-0-0-0-0-0-3-3-3-3-3-3-3-3-|
--8-8-8-8-8-8-8-8-10-10-10-7-7-7-3-3-|--0-0-0-0-0-0-0-0-3-3-3-3-3-3-3-3-|
--8-8-8-8-8-8-8-8-10-10-10-7-7-7-3-3-|--0-0-0-0-0-0-0-0-3-3-3-3-3-3-3-3-|


                                                                         
-------------------------------------|----------------------------------|
-------------------------------------|----------------------------------|
-------------------------------------|------10-10-10-10-----10-10-10-10-|
--8-8-8-8-8-8-8-8-10-10-10-7-7-7-3-3-|----------------------------------|
--8-8-8-8-8-8-8-8-10-10-10-7-7-7-3-3-|------8--8--8--8------8--8--8--8--|
--8-8-8-8-8-8-8-8-10-10-10-7-7-7-3-3-|----------------------------------|


                             
---------------------------|
---------------------------|
------10-10-10-10----------|
------------------0--------|
------8--8--8--8--0--------|
------------------0--------|


Comments