Sum 41 - Angels With Dirty Faces Chords & Tabs

 

Angels With Dirty Faces Chords & Tabs

Sum 41 Chords & Tabs

Version: 1 Type: Bass Tab

Angels With Dirty Faces Bass Tab

Artist: Sum 41
Song: Angels With Dirty Faces
Album: Chuck

Some parts may not be right, but this is pretty close, post any suggestions in 'Comments'

Intro: Play x2
g|-------------------------------------|
d|-------------------------------------|
a|-4----------0---------2--------------|
e|--------------------------------4----|

Intro Part 2 (Heavier Part):
g|-------------------------------------------------|
d|---222---222---111--111----222---222---111--111--|
a|-4-----4-----0-----0-----4-----4-----0-----0-----|
e|-------------------------------------------------|

Verse
g|---------------------------------------------------|
d|-----------------------------------------------2---|
a|--444---444---444---444---444---444---444----------|
e|--------------------------------------------00-----|

Verse (cont.): Play x2
g|--------------------------------------|
d|--------------------------------------|
a|-44444444-00000000----------222222222-|
e|-------------------44444444-----------|
[ Tab from: http://www.guitartabs.cc/tabs/s/sum_41/angels_with_dirty_faces_btab.html ]
Chorus
g|----------------------2222222222----------|
d|------------222222222---------------------|
a|-4444444444---------------------000000000-|
e|------------------------------------------|

Post-Chorus
g|-------------------------------|
d|-------------------------------|
a|--4-------1-------2-------4----|
e|-------------------------------|


Verse (cont.): Play x2
g|--------------------------------------|
d|--------------------------------------|
a|-44444444-00000000----------222222222-|
e|-------------------44444444-----------|

Chorus
g|----------------------2222222222----------|
d|------------222222222---------------------|
a|-4444444444---------------------000000000-|
e|------------------------------------------|

Bridge
g|-------------------------------------------------|
d|-------------------------------------------------|
a|-4444--------4444-------4444-----444444444444444-|
e|-------------------------------------------------|

Chorus
g|----------------------2222222222----------|
d|------------222222222---------------------|
a|-4444444444---------------------000000000-|
e|------------------------------------------|

Ending
g|----------------------------|
d|--2222--2222--2222--2222----|
a|-4-----4-----4-----4-----44-|
e|----------------------------|