Sum 41 - All Shes Got Chords & Tabs

 

Sum 41 Chords & Tabs

Version: 1 Type: Tab 0 ratings
1 star 2 stars 3 stars 4 stars 5 stars
comments

All Shes Got Tab

   





TABBED BY MARCUS LUBBOCK
IT SHOULD BE CORRECT EXCEPT MAYBE FOR THE SOLO
all she's got

Verse
e|---------------------------------------------------------------------------
B|---------------------------------------------------------------------------
G|-------------------------4-4-4-4-4-4---------------------------------------
D|-2-2-2-2-2-2-4-4-4-4-4-4-4-4-4-4-4-4-6-6-6-6-6-6-2-2-2-2-2-2-4-4-4-4-4-4---
A|-2-2-2-2-2-2-4-4-4-4-4-4-2-2-2-2-2-2-6-6-6-6-6-6-2-2-2-2-2-2-4-4-4-4-4-4---
E|-0-0-0-0-0-0-2-2-2-2-2-2-------------4-4-4-4-4-4-0-0-0-0-0-0-2-2-2-2-2-2---|

e|---------------------------------------------------------------------------
B|---------------------------------------------------------------------------
G|-------------------------4-4-4-4-4-4---------------------------------------
D|-2-2-2-2-2-2-4-4-4-4-4-4-4-4-4-4-4-4-2-2-2-2-2-2--2-2-2--2-2-2-4-4-4-4-4-4-
A|-2-2-2-2-2-2-4-4-4-4-4-4-2-2-2-2-2-2-2-2-2-2-2-2--2-2-2--2-2-2-4-4-4-4-4-4-
E|-0-0-0-0-0-0-2-2-2-2-2-2-------------0-0-0-0-0-0--0-0-0--0-0-0-2-2-2-2-2-2-

Chorus
e|---------------------------------------------------------------------------
B|---------------------------------------------------------------------------
G|-4-4-4-4-4-4---------------------------------------------------------------
D|-4-4-4-4-4-4--2-2-2-2-2-2--4-4-4-4-4-4--2-2-2-2-2-2------------------------
A|-2-2-2-2-2-2--2-2-2-2-2-2--4-4-4-4-4-4--2-2-2-2-2-2------------------------
E|--------------0-0-0-0-0-0--2-2-2-2-2-2--0-0-0-0-0-0------------------------

Riff x 2
e|---------------------------------------------------------------------------
B|---------------------------------------------------------------------------
G|---------------------------------------------------------------------------
D|---2-1----2-1----2-1---2/4--2--1-------------------------------------------
A|-2------2------2-----------------------------------------------------------
E|--------------------------------------------------------------------------
[ Tab from: http://www.guitartabs.cc/tabs/s/sum_41/all_shes_got_tab.html ]
Verse
e|---------------------------------------------------------------------------
B|---------------------------------------------------------------------------
G|---------------------------------------------------------------------------
D|-9~-----------------------------------------------------------9\\----------
A|-9~-----------------------------------------------------------9\\----------
E|-7~-----------------------------------------------------------7\\----------


e|---------------------------------------------------------------------------
B|---------------------------------------------------------------------------
G|-------------------------4-4-4-4-4-4---------------------------------------
D|-2-2-2-2-2-2-4-4-4-4-4-4-4-4-4-4-4-4-6-6-6-6-6-6-2-2-2-2-2-2-4-4-4-4-xxxxx-
A|-2-2-2-2-2-2-4-4-4-4-4-4-2-2-2-2-2-2-6-6-6-6-6-6-2-2-2-2-2-2-4-4-4-4-xxxxx-
E|-0-0-0-0-0-0-2-2-2-2-2-2-------------4-4-4-4-4-4-0-0-0-0-0-0-2-2-2-2-xxxxx-


Solo
e|---------------------------------------------------------------------------
B|---------------------------------------------------------------------------
G|-8-9-11-11-9-8--9-8---9-8---8-9-11-11-9-8--9-8---9-8-----------------------
D|--------------------9-----9--------------------9-----9---------------------
A|---------------------------------------------------------------------------
E|---------------------------------------------------------------------------


e|-7-9-11-11-9-7--7-9-11-11-9-7---------------------------------------------|
B|------------------------------------------------------------------------|
G|------------------------------------------------------------------------|
D|--------------------------------------------------------------------------
A|--------------------------------------------------------------------------|
E|---------------------------------------------------------------------------|

Chorus x 1

Bridge
e|---------------------------------------------------------------------------
B|---------------------------------------------------------------------------
G|-4-4-4-4-------------------------4-4-4-4-----------------4x----------------
D|-4-4-4-4-2-2-2-2-4-4-4-4-2-2-2-2-4-4-4-4-2-2-2-2-4-4-4-4-4x----------------
A|-2-2-2-2-2-2-2-2-4-4-4-4-2-2-2-2-2-2-2-2-2-2-2-2-4-4-4-4-2x----------------
E|---------0-0-0-0-2-2-2-2-0-0-0-0---------0-0-0-0-2-2-2-2-------------------|

Chorus

Comments