Sum 41 - All Messed Up Chords & Tabs

 

All Messed Up Chords & Tabs

Sum 41 Chords & Tabs

Version: 1 Type: Tab 0 ratings
1 star 2 stars 3 stars 4 stars 5 stars
comments

All Messed Up Tab

|--------------------------|   . = palm mute
|--Sum 41 - All Messed Up--|   / = slide
|--------------------------|

Some of the strumming is not correct so just fill it in when you play.

Standard Tuning

Intro
|------77--------77--------77--------77---
|--------77--------77--------77--------77-
|--444-------444--------------------------
|--444-------444-------222-------444------
|--222-------222-------222-------444------
|----------------------000-------222------

|------77--------77--------77--------77------------------
|--------77--444---77--555---77--777---77----------------
|--444-------333-------444-------666-------/2-2222222222-
|--444-------111-------222-------444-------/2-2222222222-
|--222-------------------------------------/4-4444444444-
|--------------------------------------------------------
                                              ......
Verse
|-------------------    ---------------------------
|-------------------x3  ---------------------------
|----------4444444--    ---------------------------
|--77--22--4444444--    --77--22--4444444444444444-
|--77--22--2222222--    --77--22--4444444444444444-
|--55--00-----------    --55--00--2222222222222222-
                                  ............
Chorus
|----------------------------------------------------
|----------------------------------------------------x2
|----------444444------------------4444444--22222----
|--22--77--444444--222222--777777--4444444--22222-44-
|--22--77--222222--222222--777777--2222222--00000-44
|--00--55----------000000--555555-----------------22-

After the chorus
|------77--------77--------77------
|--------77--444---77--------77----
|--444-------333-------------------
|--444-------111-------222-------4-
|--222-----------------222-------4-
|----------------------000-------2-
[ Tab from: http://www.guitartabs.cc/tabs/s/sum_41/all_messed_up_tab.html ]
Verse 2 
|--------------------    --------------------------
|--------------------x3  --------------------------
|------------444-444-    --------------------------
|--777--222--444-444-    --77--22--444444444444444-
|--777--222--222-222-    --77--22--444444444444444-
|--555--000----------    --55--00--222222222222222-
   ..   ..   ..  ..                ...........
Chorus
|----------------------------------------------------
|----------------------------------------------------x2
|----------444444------------------4444444--22222----
|--22--77--444444--222222--777777--4444444--22222-44-
|--22--77--222222--222222--777777--2222222--00000-44
|--00--55----------000000--555555-----------------22-

After the chorus
|-----------    --------------
|-----------x2  --------------
|--22222----    --------------
|--22222-44-    -444444444444-
|--00000-44-    -444444444444-
|--------22-    -222222222222-

i dunno what this part is called but its about 1:16 into the song
|---------------------------------    -------------------------------------------
|--555555-------------------------x4  -------------------------------------------
|--444444--666666----------444444-    -22--444444-22--444444-22--444444444444444-
|--222222--666666--777777--444444-    -22--444444-22--444444-22--444444444444444-
|----------444444--777777--222222-    -00--222222-00--222222-00--222222222222222-
|------------------555555---------    -------------------------------------------

|--------------------------
|--------------------------x4
|--44----44-2-44----44-2-4-
|--44-2--44-2-44-2--44-2-4-
|--22-2--22-0-22-2--22-0-2-
|-----0----------0---------

|-------------------    ------------------------
|-------------------x3  ------------------------
|----------4444444--    ------------------------
|--77--22--4444444--    --77--22--4-4-4-4-4-4-4-
|--77--22--2222222--    --77--22--4-4-4-4-4-4-4-
|--55--00-----------    --55--00--2-2-2-2-2-2-2-                                  

Then play the chorus again and then the whole intro

=-=-=-=-=-=-=-=-=-=-=-=-=-=-=-=-=-=-=-=-=-=-=-=-=-=-=-=-=-=-=-=-=-=-=-=-=-=-=-=-=
Comments