Sum 41 - 88 Chords & Tabs

 

88 Chords & Tabs

Sum 41 Chords & Tabs

Version: 3 Type: Tab 0 ratings
1 star 2 stars 3 stars 4 stars 5 stars
comments

88 Tab

Artist  Sum 41
Song  88
Album  Chuck
Tabbed: Akr0s(email: marcocampa86@hotmail.com)
Tuning Half step down(D# G# C# F# A# D#) 

This is the first solo of the song....

Guitar 1 
Palm muted
D#------------------------------------------------------------------|
A#-----------------------------------------------------------------|
F#----------4-4-4-4---------4-4-4-4-5-5-5-5-2-2-2-2-2-2-2-2-4-4-4-4-| x2
C#--2-2-2-2-4-4-4-4-2-2-2-2-4-4-4-4-5-5-5-5-2-2-2-2-2-2-2-2-4-4-4-4-|
G#--2-2-2-2-2-2-2-2-2-2-2-2-2-2-2-2-3-3-3-3-0-0-0-0-0-0-0-0-2-2-2-2-|
D#--0-0-0-0---------0-0-0-0-----------------------------------------|
[ Tab from: http://www.guitartabs.cc/tabs/s/sum_41/88_tab_ver_3.html ]
Guitar 2
Distortion - Fast pick up and down 
D#------------------------------------------------------------------|
A#-12-12-12-10-12-12-12-10-12-12-12-10-12-12-12---------------------|
F#---------------------------------------------14-14-14-12-12-12-10-|
C#------------------------------------------------------------------|
G#------------------------------------------------------------------|
D#------------------------------------------------------------------|

D#------------------------------------------------------------------|
A#------------------------------------------------------------------|
F#-10-10------------------------------------------------------------|
C#-------12-12-12-------------------------------9-9-9-10-10-12-12-10|
G#----------------9-9-9-10-10-10-12-12-12-9-9-9---------------------|
D#------------------------------------------------------------------|

D#------------------------------------------------------------------|
A#------------------------------------------------------------------|
F#------------------------------------------------------------------|
C#-10-9--9-9-10-12-10--9-9-9----------------------------------------|
G#---------------------------10-10-10-9-9-9-7-7-7-2-2-2-2-3-3-5-3-2-|
D#------------------------------------------------------------------|
Comments