Suicide Machines - Your Silence Chords & Tabs

 

Your Silence Chords & Tabs

Suicide Machines Chords & Tabs

Version: 2 Type: Tab 0 ratings
1 star 2 stars 3 stars 4 stars 5 stars
comments

Your Silence Tab

   
[Intro] 
e|-------------|-----------------|(play twice) 
B|-------------|[guitar 2]-------| 
G|-2-----------|2222-2-2-2222-2--| 
D|-2-----------|2222-2-2-2222-2--| 
A|-0(let ring)-|0000-0-0-0000-0-3| 
E|-------------|----3-3------3---| 

[Verse] 
e|--------------|--------------| 
B|--------------|--------------| 
G|----888-777777|---888-777-555| 
D|-77-888-777777|77-888-777-555| 
A|-77-666-555555|77-666-555-333| 
E|-55-----------|55------------| 

"your silence..." "equals your death..." 
e|---(let ring)-|-----------------------| 
B|--------------|-----------------------| 
G|-7------------|8-7-5-2222-------------| 
D|-7------------|8-7-5-2222-6-5-3-222222| 
A|-5------------|6-5-3-0000-6-5-3-222222| 
E|--------------|-----------4-3-1-000000| 

[Interlude part 1] 
e|-----------| 
B|-----------| 
G|----7-----8| 
D|-7--7--8--8| 
A|-7--5--8--6| 
E|-5-----6---| 
(played twice then p.muted) 
[ Tab from: http://www.guitartabs.cc/tabs/s/suicide_machines/your_silence_tab_ver_2.html ]
[Interlude part 2] "what you gonna do..." 
e|-xx5-xx5-xx5-xx5-xx8--xx8--xx7-| 
B|-xx5-xx5-xx5-xx5-xx8--xx8--xx7-|(play twice) 
G|-xx5-xx5-xx5-xx5-xx8--xx8--xx7-| 
D|-xx7-xx7-xx7-xx7-xx10-xx10-xx9-| 
A|-------------------------------| 
E|-------------------------------| 

[Interlude part 3] 
e|------------------------------------|-----------|------------| 
B|------------------------------------|-----------|------------| 
G|----------77777777----------88888888|---77----88|------------| 
D|-77777777-77777777-88888888-88888888|77-77-88-88|------222222| 
A|-77777777-55555555-88888888-66666666|77-55-88-66|6-5-3-000000| 
E|-55555555----------66666666---------|55----66---|------------| 

[Outro] 
e|--------------|----------------| 
B|--------------|----------------| 
G|----888-777777|---888-777-555--| 
D|-77-888-777777|77-888-777-555-7| 
A|-77-666-555555|77-666-555-333-7| 
E|-55-----------|55-------------5| 

**I'm almost 100% positive some parts of this tab are wrong, bur if 
you're not legally retarded and u can play guitar.. then im sure u can 
figure it out =)** 

Tabbed by : SexyManPistol17@hotmail.com
Comments