Suicide Machines - Your Silence Chords & Tabs

 

Your Silence Chords & Tabs

Suicide Machines Chords & Tabs

Version: 1 Type: Tab 0 ratings
1 star 2 stars 3 stars 4 stars 5 stars
comments

Your Silence Tab

Suicide Machines
"Your Silence"

 I was really fed up of finding really bad tabs for songs, so i decided to write my own. 
think it's just about perfect, but i couldn't find the chords for the part during the 
that sounds kinda ska-ish. e mail me with corrections at sk8rkid45@aol.com.i could't figure out exactly
how long he strummed for or the pattern, so listen to the song

Standard tuning
EBGDAE (in case you didnt know, hope you did)

Drums start.(Hit first chord and hold for about 4 beats)
INTRO:
|-----|-------------------|
|-----|-------------------|
|-----|-------------------|
|--7--|--7--6--8--6--5--4-|
|--7--|--7--6--6--6--5--4-|
|--5--|-------------------|
*First Chord(Hold)
[ Tab from: http://www.guitartabs.cc/tabs/s/suicide_machines/your_silence_tab.html ]
VERSE:
|--------|----------|
|--------|----------|
|---8--7-|---8--7-5-|
|-7-8--7-|-7-8--7-5-|
|-7-6--5-|-7-6--5-3-|
|-5------|-5--------|

CHORUS I:
|-------------|----------|
|-------------|----------|
|-7--7--7b-7b-|-8--7-6---|
|-7--7--7b-7b-|-8--7-6-6-|
|-5--5--5b-5b-|-6--5-4-6-|
|-------------|--------4-|

VERSE:
|--------|----------|
|--------|----------|
|---8--7-|---8--7-5-|
|-7-8--7-|-7-8--7-5-|
|-7-6--5-|-7-6--5-3-|
|-5------|-5--------|

CHORUS II:
|--------------|-----------|-------------|
|--------------|-----------|-------------|
|-7--7--7b-7b--|*-8--7-6---|------------*|
|-7--7--7b-7b--|*-8--7-6-6-|-6--5--3--2-*|
|-5--5--5b-5b--|--6--5-4-6-|-6--5--3--2--|
|--------------|---------4-|-4--3--1--0--|

|----------|
|----------|
|-8--7-5---|
|-8--7-5-7-|
|-6--5-3-7-|
|--------5-|

|------------|
|------------|
|----7-----8-|
|-7--7--8--8-|
|-7--5--8--6-| 
Comments