Suicide Machines - What I Like About You Chords & Tabs

 

What I Like About You Chords & Tabs

Suicide Machines Chords & Tabs

Version: 2 Type: Tab 0 ratings
1 star 2 stars 3 stars 4 stars 5 stars
comments

What I Like About You Tab

Suicide Machines
What I Like about you
Before You were punk II

THis song works best if you have a pedal to switch from clean to overdrive.


Intro:(Clean)
E------------------------------------------------------------
B-10-9-10----------------------------------------------------
G--9-9--9-777------------------------------------------------
D--9-9--9-555-7777-------------------------------------------
A--7-7--7-555-7777-------------------------------------------
E-------------5555-------------------------------------------
[ Tab from: http://www.guitartabs.cc/tabs/s/suicide_machines/what_i_like_about_you_tab_ver_2.html ]
Main Part:(played through most of the song)
E------------------------------------------------------------
B------------------------------------------------------------
G-999------7-7-----------------------------------------------
D-999-7-77-7-7-77--------------------------------------------
A-777-7-77-5-5-77--------------------------------------------
E-----5-55-----55--------------------------------------------

e|---------------------------------------------------------|
B|---------------------------------------------------------|
G|---------------7-7--7--------9-9--9--------7-7--7--------|
D|-2-2--2-7-7--7-7-7--7-7-7--7-9-9--9-7-7--7-7-7--7-7-7--7-|
A|-2-2--2-7-7--7-5-5--5-7-7--7-7-7--7-7-7--7-5-5--5-7-7--7-|
E|-0-0--0-5-5--5--------5-5--5--------5-5--5--------5-5--5-|


That pretty much wraps it up. Please Rate!
Comments