Suicide Machines - What I Like About You Chords & Tabs

 

What I Like About You Chords & Tabs

Suicide Machines Chords & Tabs

Version: 1 Type: Tab 0 ratings
1 star 2 stars 3 stars 4 stars 5 stars
comments

What I Like About You Tab

Artist:The Suicide Machines
Song:What I Like About You
Album:Punk Covers
Tabbed By:Homie "G" & Pimp Daddy

THIS WAS A DIFICULT TAB TO TAB BUT, I FINNALLY GOT IT (WITH THE HELP OF MY FRIEND PIMP DADDY!)

Intro Clean 4x
e|--5--5--5--5-5--7-7-7-5--5-5-5-|
B|--7--6--7--7-7--7-7-7-5--5-5-5-|
G|--7--7--7--7-7--8-8-8-6--6-6-6-|
D|--7--7--7--7-7--9-9-9-7--7-7-7-|
A|--5--5--5--5-5--9-9-9-7--7-7-7-|
E|----------------7-7-7-5--5-5-5-|

Verse w/ distortion 4x
e|------------------------|
B|------------------------|
G|-9--------6/7-7---------|
D|-9---7-7--6/7-7--7-7--7-|
A|-7---7-7--4/5-5--7-7--7-|
E|-----5-5---------5-5--5-|
[ Tab from: http://www.guitartabs.cc/tabs/s/suicide_machines/what_i_like_about_you_tab.html ]
Chorus at a faster pace 2x
e|---------------------------------------------------------|
B|---------------------------------------------------------|
G|---------------7-7--7--------9-9--9--------7-7--7--------|
D|-2-2--2-7-7--7-7-7--7-7-7--7-9-9--9-7-7--7-7-7--7-7-7--7-|
A|-2-2--2-7-7--7-5-5--5-7-7--7-7-7--7-7-7--7-5-5--5-7-7--7-|
E|-0-0--0-5-5--5--------5-5--5--------5-5--5--------5-5--5-|

Bridge - * = play 4x
e|----------------------------------------------------|
B|----------*---*-------------------------------------|
G|--*---*--7---7----*---*---*---*----7-7-7---9--*---*-|
D|-5---5---7---7---5---5---7---7---7-7-7-7-7-9-9---9--|
A|-5---5---5---5---5---5---7---7---7-5-5-5-7-7-9---9--|
E|-3---3-----------3---3---5---5---5-------5---7---7--|

Play chorus then verse over harmonica solo
Play verse 4x
Play chorus til end
Comments