Suicide Machines - Twelve Years On Tour And All I Got Was This Lousy T-shirt Chords & Tabs

 

Twelve Years On Tour And All I Got Was This Lousy T-shirt Chords & Tabs

Suicide Machines Chords & Tabs

Version: 1 Type: Bass Tab 0 ratings
1 star 2 stars 3 stars 4 stars 5 stars
comments

Twelve Years On Tour And All I Got Was This Lousy T-shirt Bass Tab

   
-------------------------------------------------------------------------------
12 YEARS ON TOUR AND ALL I GOT WAS THIS LOUSY SHIRT - The Suicide Machines
-------------------------------------------------------------------------------

Tabbed By : Collyn O'Kane 
e-mail: njnets311@gmail.com

This song is off the album "War Profiteering Is Killing Us All."

Tuning: EADG

Intro/Main Riff
G|---------------------------------------------------------------------------|
D|---4-4-4-4--2--0---------------0-2-2h4-4-4-4/5-4-2-------------------------|
A|-------------------2h4---4-4-4---------------------2h4---------------------|
E|---------------------------------------------------------------------------|

Transition to Chorus
G|-----------------------------------------------------------------------------------|
D|-----------------------------------------------------------------------------------|
A|---4---0--2--4-4-4/5-4-2--2--------------------------------------------------------|
E|-----------------------------22222222----------------------------------------------|
[ Tab from: http://www.guitartabs.cc/tabs/s/suicide_machines/twelve_years_on_tour_and_all_i_got_was_this_lousy_t_shirt_btab.html ]
Chorus                      Transition to Main Riff
G|------------------------|----------------------------------------------------------|
D|------------------------|----------------------------------------------------------|
A|------------------------|---------------22222222-----------------------------------|
E|---333333--55--22222222-|---333333--55---------------------------------------------|

Verse (Synth Bass)                            Transition to Chorus   
G|------------------------------------------|----------------------------------------|
D|---------------666666--------------666666-|----------------------------------------|
A|---9\44444-2-4---------9\44444-2-4--------|---2--4h5p4-5--2-2----------------------|
E|------------------------------------------|--------------------22222222------------|

Bridge at 1:31
G|-------------------------------|--------------------------6-6p44-4h66-------4------|
D|---4~----4~--------------------|---------------0-2--4-6-7-------------6---6--------|
A|------4~----4~--2~--4~--2~-----|---------4--4---------------------------4----------|
E|----------------------------2~-|---2--4---------------------------------------00h2-|

Chorus Variation
G|-----------------------------------------------------------------------------------|
D|---4444444--------44444444---------------------------------------------------------|
A|----------44444444--------44444444-22222222-44444444-22222222----------------------|
E|-------------------------------------------------------------22222222--------------|
(Goes back to Chorus and ends on Synth Bass)


| /  slide up
| \  slide down
| h  hammer-on
| p  pull-off
| ~  let ring
| +  harmonic
| x  Mute note
===============================================================================
Comments