Suicide Machines - Sos Chords & Tabs

 

Sos Chords & Tabs

Suicide Machines Chords & Tabs

Version: 2 Type: Bass Tab 0 ratings
1 star 2 stars 3 stars 4 stars 5 stars
comments

Sos Bass Tab

Suicide Machines
Bass Tablature for SOS

Intro: (repeat 1x)
G:----------------
D:----------------
A:---3--------5---
E:5-----1--3------

Chorus and Before Verse:
G:------------------------------------------------
D:----------------5------------------------5------
A:---7----7----3--------5-----7----7----3--------5
E:5-----5---5--------3-----5-----5---5--------3---

Chorus and Before Verse continued:
G:-------------------------------------------------
D:----------------5--------------------------------
A:---7----7----3--------5-----7----7----3-3-3------
E:5-----5---5--------3-----5-----5---5--------3-3-3

Verse and "I wish I knew": (Repeat 3x)
G:------------------------
D:----------------5-------
A:---7----7----3--------5-
E:5-----5---5--------3----
[ Tab from: http://www.guitartabs.cc/tabs/s/suicide_machines/sos_btab_ver_2.html ]
"I can't take it" and organ solo:
G:----------------------------------------------
D:---------5-----------------------5------------
A:5--7--8--------------5--5--7--8-----7--5------
E:------------5--7--8-----------------------8--7

"It's a bomb with a short fuse!":
(1st half Repeat 2x, then go on to 2nd half)
G:---------------------------*-----------------------
D:---7--10--7---------9------*---7--10--7------------
A:8------------7--10-----10--*8------------7--5------
E:---------------------------*-------------------8--7

Fast singin part:
(1st half Repeat 2x, then go on to 2nd half)
G:----------------------------*---------------------------
D:------5-7-------------------*------5-7------------------
A:----7-----------------------*----7----------------------
E:5---------5-7-8--8--8--7-5-3*5---------5-7-8---7---3---5

Instrumental similar to above:
G:------------4-5--5--5--4----*---------------------------
D:------5-7-7--------------7-5*------5-7------------------
A:----7-----------------------*----7----------------------
E:5---------------------------*5---------5-7-8---7---3---5




Figured out and written by Fidget (hoepfner@lcm.macomb.lib.mi.us)



Comments