Suicide Machines - So Long Chords & Tabs

 

So Long Chords & Tabs

Suicide Machines Chords & Tabs

Version: 1 Type: Bass Tab 0 ratings
1 star 2 stars 3 stars 4 stars 5 stars
comments

So Long Bass Tab

   
Suicide Machines
Bass Tablature for So Long

Intro: (Repeat 1x)
G:2--6-----6---7--7--4---6-----6---9--4--2--
D:------------------------------------------
A:------------------------------------------
E:------------------------------------------

2nd part of Intro: (Repeat 1x)
G:------------------------------
D:------------------------------
A:0-----5---2--4--0-----7---2--4
E:------------------------------
[ Tab from: http://www.guitartabs.cc/tabs/s/suicide_machines/so_long_btab.html ]
Verse and "Goodbye!": (Pick up the speed, repeat until section below)
G:-----------------------------------------------
D:-----------------------------------------------
A:0--0-0--0-0-2--2-2--2-2-5--5-5--5-5-7--7-7--7-7
E:-----------------------------------------------

"I thought that I knew everything about you" part: (Repeat 3x)
G:--------------------------------
D:--------------------------------
A:4-4-4-4-5-5-5-5-7-7-7-7-5-5-4-2-
E:--------------------------------

Chorus:
G:--------------------------------------------------
D:--------------------------------------------------
A:----7-9--7--5--4-----4------7-9--7--5--4--7-5-4---
E:5-----------------5-----5-----------------------7-




Figured out and written by Fidget (hoepfner@lcm.macomb.lib.mi.us)




Comments