Suicide Machines - Scares Chords & Tabs

 

Scares Chords & Tabs

Suicide Machines Chords & Tabs

Version: 1 Type: Tab 0 ratings
1 star 2 stars 3 stars 4 stars 5 stars
comments

Scares Tab

scares
by the suicide machines

this is my third tab. It took me 7 hours to make...
I dont feel like typing much right now so bye. 

intro       2x
|-------------------------------------------------|
|-------------------------------------------------|
|--------------7--7\6-6--6\4-4--4--4--/7--7--7--7-|
|--7--7--7--7--7--7\6-6--6\4-4--4--4--/7--7--7--7-|
|--7--7--7--7--5--5\4-4--4\2-2--2--2--/5--5--5--5-|
|--5--5--5--5-------------------------------------|

4x                             1x
|-----------------------------|-----|
|-----------------------------|-----|
|-------------7-7-7-7-7-7-7-7-|-----|
|-7--7--7--7--7-7-7-7-7-7-7-7-|-7---|
|-7--7--7--7--5-5-5-5-5-5-5-5-|-7---|
|-5--5--5--5------------------|-5---|

intro       2x
|-------------------------------------------------|
|-------------------------------------------------|
|--------------7--7\6-6--6\4-4--4--4--/7--7--7--7-|
|--7--7--7--7--7--7\6-6--6\4-4--4--4--/7--7--7--7-|
|--7--7--7--7--5--5\4-4--4\2-2--2--2--/5--5--5--5-|
|--5--5--5--5-------------------------------------|

2x                             1x
|-----------------------------|-----|
|-----------------------------|-----|
|-------------7-7-7-7-7-7-7-7-|-----|
|-7--7--7--7--7-7-7-7-7-7-7-7-|-7---|
|-7--7--7--7--5-5-5-5-5-5-5-5-|-7---|
|-5--5--5--5------------------|-5---|
[ Tab from: http://www.guitartabs.cc/tabs/s/suicide_machines/scares_tab.html ]
verse  2x
|---------------------------------------------|
|---------------------------------------------|
|-------------7--7-7-7-7--9--9-9-9-9-11-11-11-|
|-7--7-7-7-7--7--7-7-7-7--9--9-9-9-9-11- 9-11-|
|-7--7-7-7-7--5--5-5-5-5--7--7-7-7-7- 9---- 9-|
|-5--5-5-5-5----------------------------------|


|---------------------|------------------------|
|---------------------|------------------------|
|--7-7-7-7-7-7--------|-7-7-7-7--9-10-9-11-9-9-|
|--7-7-7-7-7-7--7--7--|-7-7-7-7--9- 8-9-11-9-9-|
|--5-5-5-5-5-5--7--7--|-5-5-5-5--7- 8-7- 9-7-7-|
|---------------5--5--|------------------------|

|---------------------|-----------------------------------|
|---------------------|-----------------------------------|
|--7-7-7-7-7-7--------|-11-11-9-9-11-11-9-9-11-11-9-11-11-|
|--7-7-7-7-7-7--7--7--|- 9- 9-7-7- 9- 9-7-7- 9- 9-7- 9- 9-|
|--5-5-5-5-5-5--7--7--|-----------------------------------|
|---------------5--5--|-----------------------------------|

chorus#1  5x             1x
|-----------------------|-----|
|-----------------------|-----|
|----x-x-7-7----x-x-9-9-|-----|
|-7--x-x-7-7--7-x-x-9-9-|-7---|
|-7--x-x-5-5--7-x-x-7-7-|-7---|
|-5-----------5---------|-5---|

chorus#2  5x             
|-----------------------|
|-----------------------|
|----x-x-7-7----x-x-9-9-|
|-7--x-x-7-7--7-x-x-9-9-|
|-7--x-x-5-5--7-x-x-7-7-|
|-5-----------5---------|

final chorus   7x        1x     
|-----------------------|--------|
|-----------------------|--------|
|----x-x-7-7----x-x-9-9-|--------|
|-7--x-x-7-7--7-x-x-9-9-|-7----7-|
|-7--x-x-5-5--7-x-x-7-7-|-7----7-|
|-5-----------5---------|-5----5-|

order:
intro
verse 
chorus#1
verse
chorus#2
intro#2
verse
final chorus

corrections or comments emale me vert_sk8er2002@yahoo.com
Comments