Suicide Machines - Real You Chords & Tabs

 

Real You Chords & Tabs

Suicide Machines Chords & Tabs

Version: 1 Type: Bass Tab 0 ratings
1 star 2 stars 3 stars 4 stars 5 stars
comments

Real You Bass Tab

Suicide Machines
Bass Tablature for the Real You

Intro:
G:------------------------------------------------
D:------------------------------------------------
A:5-------------------------5---------------------
E:------------------------------------------------
[ Tab from: http://www.guitartabs.cc/tabs/s/suicide_machines/real_you_btab.html ]
"The word 'real' is defined..." and Chorus:
G:------------------------------------------------------------------
D:---------------------------------------------------5-5-5-5-5-55--5
A:5-5-5-5-5-55--3-------------------5-5-5-5-5-55--3-----------------
E:-----------------3-3-3-3-3-33--3----------------------------------

Verse: (Repeat 3x)
G:7------------------------------------------------
D:----7---4-5-7-7-7-7---4--5--5--5-----------------
A:----------------------------------7--------------
E:-------------------------------------5--5--5--5--

"Motherfucker", "Fuckin Bitch", etc...: (Repeat 3x)
G:-----------------------------
D:-----------------------------
A:-----------------------------
E:5-3---------5-5-5-5-55-5-5-5-




Figured out and written by Fidget (hoepfner@lcm.macomb.lib.mi.us)




Comments