Suicide Machines - High Society Chords & Tabs

 

High Society Chords & Tabs

Suicide Machines Chords & Tabs

Version: 1 Type: Bass Tab 0 ratings
1 star 2 stars 3 stars 4 stars 5 stars
comments

High Society Bass Tab

um, this is almost the whole song but i don't know the part after the chorus

intro/verse:
g-----------------
d-----9-0---------
a-7-7-----7-7-----
e-------------8-7-
[ Tab from: http://www.guitartabs.cc/tabs/s/suicide_machines/high_society_btab.html ]
pre chorus:
g-----------------------------
d-----------4-7----2-5----4-7-
a----2-5-55-----33-----55-----
e-33--------------------------

chorus:
g--------------------
d--------------------
a------5555-3333333-5
e-3333---------------

order:
intro  x4
pre chorus x2
chorus x 2
post chorus
intro x4
pre chorus x2
chorus x2
post chorus
pre chorus x2

that's it... if u know the other part, email me at blinkskater2@juno.com
Comments