Suicide Machines - High Anxiety Chords & Tabs

 

High Anxiety Chords & Tabs

Suicide Machines Chords & Tabs

Version: 1 Type: Bass Tab

High Anxiety Bass Tab

   
INTRO

G-------------------|
D-------------------|
A---------7-------5-|
E---5---------------|


CHORUS

G------------------------------------
D------------------------------------
A----------7-7-7-7-----------5-5-7-7-
E-5-5-5-5-----------5-5-5-5----------


G------------------------------------
D------------------------------------
A----------5-5-4-4-----------5-5-5-5-
E-5-5-5-5-----------5-5-5-5----------

G------------------
D------------------
A------------------
E-5-5-5-5--5-5-----                            x1

VERSE
[ Tab from: http://www.guitartabs.cc/tabs/s/suicide_machines/high_anxiety_btab.html ]
G------------------
D------------------
A----------7-7-7-7-
E-5-5-5-5----------                            x4

INTERLUDE


G------------------------------------
D------------------------------------
A------------2---2----5---7----7---7-
E---5---5----------------------------        x3

G------------------------------------
D------------------------------------
A------------2---2----5---5----------        x1
E---5---5----------------------------



G------------------
D------------------
A----------7-7-7-7-
E-5-5-5-5----------  (same as verse)           x5




END ON

G---
D---
A---
E-5-