Suicide Machines - Hey Chords & Tabs

 

Hey Chords & Tabs

Suicide Machines Chords & Tabs

Version: 3 Type: Bass Tab

Hey Bass Tab

   
this is my first tab im pretty shure this is right. if anyone knows the breakdown
plz tell meeee and questions or comments plz email me  erikbrooman2@hotmail.com
after the guitar plays it twice the bass comes in at(0:41)
G|---------------------|
D|------------4---6----|
A|--4-7-5-4-5---7--  1-|0X
E|5--------------------|
Break
G|------------------------------------|
D|----------4-7-5-4---6-9-7-6-7-6-4---|
A|-4-7-5-4-5--------7---------------7-| 2X
E|5-----------------------------------|

G|------------------|
D|------------4---6-|
A|--4-7-5-4-5---7---| 4X
E|5-----------------|
[ Tab from: http://www.guitartabs.cc/tabs/s/suicide_machines/hey_btab_ver_3.html ]
G|---------------------------------------------------------------------|
D|-4-7-5-4---4-7-5-4----------------------4-7-5-4---4-7-5-4------------|
A|5--------5-----------4-7-5-4---4-7-5-4-5--------5---------7--7--7777-|
E|-------------------5---------5---------------------------------------|

G|------------------|
D|------------4---6-|
A|--4-7-5-4-5---7---| 4X
E|5-----------------|

G|---------------------------------------------------------------------|
D|-4-7-5-4---4-7-5-4----------------------4-7-5-4---4-7-5-4------------|
A|5--------5-----------4-7-5-4---4-7-5-4-5--------5---------7--7--7777-|
E|-------------------5---------5---------------------------------------|

G|------------------|
D|------------4---6-|
A|--4-7-5-4-5---7---| 4X
E|5-----------------|
ther is a break down here but i dont know it
G|--------------------|
D|------------4---6---|
A|--4-7-5-4-5---7-----|  8X
E|5-------------------|
end on
G|-
D|-
A|-
E|5