Suicide Machines - Hey Chords & Tabs

 

Hey Chords & Tabs

Suicide Machines Chords & Tabs

Version: 1 Type: Bass Tab 0 ratings
1 star 2 stars 3 stars 4 stars 5 stars
comments

Hey Bass Tab

 HEY 
 Suicide Machines


Intro:  (Repeat until "HEY!")
G:------------------
D:------------------
A:------3-2-3-------
E:0--0---------3--2-

"HEY!" part and also "Looked around this crazy world...": (Repeat until below)
G:----------------------
D:----------------4----6
A:---4-7--5-4--5----7---
E:5---------------------

Ska instrumental with trumpet: (Repeat 1x)
G:-------------------------------------------------
D:----------------4-7--6-4-----6-9--7-6--7--6--4---
A:---4-7--5-4--5------------7---------------------7
E:5------------------------------------------------
[ Tab from: http://www.guitartabs.cc/tabs/s/suicide_machines/hey_btab.html ]
"No one ever told me I was gonna get older":
G:----------------------------------------------------
D:---4-7--6-4-----4-7--6-4----------------------------
A:5------------5---------------4-7--5-4-----4-7--5-4--
E:--------------------------5------------5------------

Above continued:
G:----------------------------------------
D:---4-7--6-4-----4-7--6-4----------------
A:5------------5------------7--7--7-7-7-7-
E:----------------------------------------

Reggae Part: (Repeat before * until very end of this part)
G:--------------------*-----------------
D:--------------------*-----------------
A:-----------5----4--2*5--7--7--7-7-7-7-
E:5--4--2-0-----------*-----------------

Figured out and written by Fidget (bassist of Half Moon) 

Comments