Suicide Machines - Face Values Chords & Tabs

 

Face Values Chords & Tabs

Suicide Machines Chords & Tabs

Version: 1 Type: Bass Tab 0 ratings
1 star 2 stars 3 stars 4 stars 5 stars
comments

Face Values Bass Tab


-----------------------------------------------------------------------------
                THE SUICIDE MAICHINES-FACE VALUES
-----------------------------------------------------------------------------

By:BASSGOD(BASSIST OF ATOMIC ILL)

                4 TIMES
G|--------------------- ----------------------------------------------|
D|--------------------- ---------------445577--445577-------------99---|
A|----2-0---------3-3-3 -------------55------55------7-77777710-10---|
E|3-3-----3-1-1-1------ 3--------(3)---------------------------------|


G|--------------------------------------------------------------------|
D|-------------------445577--445577--------------9-9--------------------|
A|-3333333---------55------55-------7-77777710-10----33333333-----------|
E|--------33333333-----------------------------------------------------|

[ Tab from: http://www.guitartabs.cc/tabs/s/suicide_machines/face_values_btab.html ]
G|------------7-------9-------5-----------7---------- ..............2-TIMES-|
D|-----5----------------------------5--------20------ ------457--6791097----|
A|---------555-5--777---7--333-3-------555-5---323202 -234-5----7-------10|
E|-333--3------------------------333-3--------------- 3------------------|

.............4 TIMES
G|------------------ -------------------------------------------------|
D|------------------ -------------------------------------------------|
A|----------55553333 -------------------------------------------------|
E|-333333333-------- -3----------(3)-----------------------------------|


G|--------------------------------------------------------------------|
D|--------------------------------------------------------------------|
A|-RE PLAY VERSE AND THEN 4 TIMES THE
INTRO--------------------------------------------------|
E|--------------------------------------------------------------------|

ENJOY,AND REMEMBER:KILL THE BACKSTREET BOYS,THOSE FAGGOTS MUST DIE!!!

=============================================================================





Comments