Suicide Machines - Break The Glass Chords & Tabs

 

Break The Glass Chords & Tabs

Suicide Machines Chords & Tabs

Version: 2 Type: Bass Tab 0 ratings
1 star 2 stars 3 stars 4 stars 5 stars
comments

Break The Glass Bass Tab

Break the Glass 
Suicide Machines


Intro:
G:--------------------4---------2----------------------4---------2-----------
D:-----------------4----------2---------------------4----------2------2-2-1--
A:--------2---2--2-------0-----------------2---2--2-------0-----------------4
E:0-2-4-2--------------------------0-2-4-2-----------------------------------

Intro continued:
G:------------4---------2--------------------4----------2--------1----------4
D:---------4----------2-------------------4----------2-----2-2-4---4---4--4--
A:2---2--2-------0---------------2---2--2-------0--0-------------------------
E:---------------------------------------------------------------------------

Intro continued:
G:-------------------------4----------4-----------2
D:--4--4-2--2--2-------------------4-----------2---
A:----------------------2-----2--2-------0---0-----
E:-------------------------------------------------

Guitar Solo:
G:---------------------------------------------------------------------------
D:---------------------------------------------------------------------------
A:-----------7--7----------------7--7----------------7--7---------------7--7-
E:---------------------------------------------------------------------------

Verse: (Repeat 3x)
G:-------------------------------
D:----9-9---------7-7-7-7-7-6---6
A:7-7-----7-9-9-9-------------9--
E:-------------------------------
[ Tab from: http://www.guitartabs.cc/tabs/s/suicide_machines/break_the_glass_btab_ver_2.html ]
"Well, I don't want to...":
G:------------------------------------------------------------------------------
D:----9-7--9--------------------9-7--9--------------------9-7--9----------------
A:5---------------9-9-7---7-5---------------9-9-7---7-5---------------9-9-7---7-
E:------------5---------9---------------5---------9---------------5---------9---

"Well, I..." continued:
G:--------------------------
D:----9-7--9----------------
A:5-----------7---7-7-7-5-4-
E:--------------------------

Chorus: (repeat 3x)
G:-----------------------------------------------
D:-----------------------------------------------
A:------------------------7--7--7--7-------------
E:7--7--7--7--2--2--2--2--------------7--7--7--7-

End of 2nd chorus:
G:---------------------------------------------------
D:---------------------------------------------------
A:------------------------7--7--7--7-----4-4-5-5-6-6-
E:7--7--7--7--2--2--2--2-------------7-7-------------

Instrumental after 2nd chorus: (repeat 3x)
G:------------------------------------------------------------
D:----6-6-7-7-9-7-9--9-7---6----------------------------------
A:7-7-----------------------------5-7-5-4---------6-6-9-9-6-6-
E:----------------------------5-5---------7-5-7-7-------------

Right before 3rd chorus:
G:-------------------------------------------------------------
D:-------------------------------------------------------------
A:------------------------------7------------------------------
E:7--------------2-----------------------------7---------------

Fadeout instrumental:
G:-------------------------------------------------------------------
D:-----6---9---------------------------------------------------------
A:7--7------------4--7------6-9----7--7-7-6----------4-7------6-9----
E:--------------5---------7-----------------9-7----5--------7--------


Figured out and written by (woah, that was a toughy!) Fidget
Comments