Suicide Machines - Bonkers Chords & Tabs

 

Bonkers Chords & Tabs

Suicide Machines Chords & Tabs

Version: 2 Type: Bass Tab 0 ratings
1 star 2 stars 3 stars 4 stars 5 stars
comments

Bonkers Bass Tab

Suicide Machines
Bonkers - Bass Tablature

intro:
g------------------------------
d------------------------------
a-7--4-------4-7------------
e-------2--6--------6--3-2-
[ Tab from: http://www.guitartabs.cc/tabs/s/suicide_machines/bonkers_btab_ver_2.html ]
verse:
g--------------------------
d---------------------------
a----6-9-----9-7--6-9--
e-7--------7--------------

bridge:
g----------4-5-4-4-----------2-3-2-2--
d--7----5-------------5----3-------------
a-------------------------------------------
e-------------------------------------------

Justin (dried_up_markers_bass_player@juno.com)
Comments