Suicide Machines - All My People Chords & Tabs

 

All My People Chords & Tabs

Suicide Machines Chords & Tabs

Version: 1 Type: Tab 0 ratings
1 star 2 stars 3 stars 4 stars 5 stars
comments

All My People Tab

song: all my people
by the suicide machines

This is the second tab I posted. To help I used
AnalogX Vocal Remover. It runs on a FREE software
called winamp @ winamp.com. To get the VOICE remover
go to AnalogX.com. Use it in "you're tabs"!!!... its also FREE.   

/=slide up
\=slide down
*=palm mute
x=regular mute

Intro
|----------------|
|----------------|
|-5--------------|
|-5--------------|
|-3--------------|
|----------------|

Verse
|--------------|--------------|--------------|--------------|
|--------------|--------------|--------------|--------------|
|7-7-7-7-7-7-7-|3-3-3-3-3-3-3-|5-5-5-5-5-5-5-|3-3-3-3-3-3-3-|
|7-7-7-7-7-7-7-|3-3-3-3-3-3-3-|5-5-5-5-5-5-5-|3-3-3-3-3-3-3-|
|5-5-5-5-5-5-5-|1-1-1-1-1-1-1-|3-3-3-3-3-3-3-|1-1-1-1-1-1-1-|
|--------------|--------------|--------------|--------------|

|--------------|--------------|--------------|--------------|
|--------------|--------------|--------------|--------------|
|5-5-5-5-5-5-5-|3-3-3-3-3-3-3-|5-5-5-5-5-5-5-|6-6-6-6-6-6-6-|
|5-5-5-5-5-5-5-|3-3-3-3-3-3-3-|5-5-5-5-5-5-5-|6-6-6-6-6-6-6-|
|3-3-3-3-3-3-3-|1-1-1-1-1-1-1-|3-3-3-3-3-3-3-|4-4-4-4-4-4-4-|
|--------------|--------------|--------------|--------------|
Chorus
|-------------------|-----------------|
|-------------------|-----------------|
|-9\7--7\5--5\3-3-3-|-7\5--5\3--x-x-3-|
|-9\7--7\5--5\3-3-3-|-7\5--5\3--x-x-3-|
|-7\5--5\3--3\1-1-1-|-5\3--3\1--x-x-1-|
|-------------------|-----------------|
[ Tab from: http://www.guitartabs.cc/tabs/s/suicide_machines/all_my_people_tab.html ]
|---------------------------|----------------------|
|---------------------------|----------------------|
|-7-7/9--9--9--9\7--7\5-5-5-|-7\5--5\3-3-3-3-3-3-3-|
|-7-7/9--9--9--9\7--7\5-5-5-|-7\5--5\3-3-3-3-3-3-3-|
|-5-5/7--7--7--7\5--5\3-3-3-|-5\3--3\1-1-1-1-1-1-1-|
|---------------------------|----------------------|
Final verse
|--------------|--------------|--------------|--------------|
|--------------|--------------|--------------|--------------|
|5-5-5-5-5-5-5-|3-3-3-3-3-3-3-|5-5-5-5-5-5-5-|3-3-3-3-3-3-3-|
|5-5-5-5-5-5-5-|3-3-3-3-3-3-3-|5-5-5-5-5-5-5-|3-3-3-3-3-3-3-|
|3-3-3-3-3-3-3-|1-1-1-1-1-1-1-|3-3-3-3-3-3-3-|1-1-1-1-1-1-1-|
|--------------|--------------|--------------|--------------|

|--------------|--------------|--------------|--------------|
|--------------|--------------|--------------|--------------|
|5-5-5-5-5-5-5-|3-3-3-3-3-3-3-|5-5-5-5-5-5-5-|6-6-6-6-6-6-6-|
|5-5-5-5-5-5-5-|3-3-3-3-3-3-3-|5-5-5-5-5-5-5-|6-6-6-6-6-6-6-|
|3-3-3-3-3-3-3-|1-1-1-1-1-1-1-|3-3-3-3-3-3-3-|4-4-4-4-4-4-4-|
|--------------|--------------|--------------|--------------|
                                                          *
Final chorus
|--------------------------------|
|--------------------------------|
|9-9-9-9\7-7-7-7\5-5-5-5\3-3-3-3-|
|9-9-9-9\7-7-7-7\5-5-5-5\3-3-3-3-|
|7-7-7-7\5-5-5-5\3-3-3-3\1-1-1-1-|
|--------------------------------|

|--------------------------------|
|--------------------------------|
|7-7-7-7\5-5-5-5\3-3-3-3-3-3-3-3-|
|7-7-7-7\5-5-5-5\3-3-3-3-3-3-3-3-|
|5-5-5-5\3-3-3-3\1-1-1-1-1-1-1-1-|
|--------------------------------|

|--------------------------------|
|--------------------------------|
|9-9-9-9\7-7-7-7\5-5-5-5\3-3-3-3-|
|9-9-9-9\7-7-7-7\5-5-5-5\3-3-3-3-|
|7-7-7-7\5-5-5-5\3-3-3-3\1-1-1-1-|
|--------------------------------|

|--------------------|
|--------------------|
|7-7-7-7\5-5-5-5\3---|
|7-7-7-7\5-5-5-5\3---|
|5-5-5-5\3-3-3-3\1---|
|--------------------|

Order

Intro
Verse
Chorus
Verse
Chorus
Final verse
Verse
Chorus
Intro x2
Final chorus

corrections or comments email me vert_sk8er2002@yahoo.com
Comments