Suicidal Tendencies - War Inside My Head Chords & Tabs

 

War Inside My Head Chords & Tabs

Suicidal Tendencies Chords & Tabs

Version: 3 Type: Tab 0 ratings
1 star 2 stars 3 stars 4 stars 5 stars
comments

War Inside My Head Tab

   
Band:  Suicidal Tendencies
Album: Join The Army
Song:  War Inside My Head

Copyright (c)  (Virgin) (1987)
Version 1.0 - (15/04/05)

Transcribed By: Steve
Email:          stephen.elvidge1@ntlworld.com


.  - palm mute           /  - slide up to
\  - slide down to       ~  - vibrato
h  - hammer on           b  - Bend
p  - pull off            Suffixes for bend
t  - tap                 f  - full bend    h - half bend
ph - pinched harmonic    q  - quarter bend t - tap bend
*  - see comment         ^  - Hold bend    r release bend
x  - Stuccatto           ~  - vibrato bend
,  - slight palm mute    () - ghost note, sustained note
"  - tremolo note        <> - harmonic

Tunning E A D G B E
 

 Intro

 
  Pluck strings between fixed bridge and tail.

E-----|
B-----|
G-----|
D-----|
A-15\-|
E-15\-|

E------------------------------------|
B------------------------------------|
G------------------------------------|
D-------------------------------7----|
A-2-2---2-2---2-2---2-2---2-2-0-5----|
E-0-0-3p0-0-3p0-0-3p0-0-3p0-0--------| Rpt 3 X

E-------------------------------|
B-------------------------------|
G-----------------------------2-|
D-----------------------------2-|
A-2-2---2-2---2-2---2-2---2-2-0-|
E-0-0-3p0-0-3p0-0-3p0-0-3p0-0---|

 Riff A
  Guitar 1
  [----------------------PM-----------------------------]
E[---------------------------------------------------------|
B[---------------------------------------------------------|
G[-7-7-7-6-----7-7-6-----7-6-/12121211----121211----1211-\-|
D[-0-0-0-0-0-0-0-0-0-0-0-0-0--0-0-0-0-0-0-0-0-0-0-0-0-0----|
A[---------------------------------------------------------|
E[---------------------------------------------------------|
 [Guitar 2
E[---------------------------------------------------------|
B[-3-----------------------(3)-----------------------------|
G[-2-----------------------(2)-----------------------------|
D[-0-----------------------(0)-----------------------------|
A[---------------------------------------------------------|
E[---------------------------------------------------------|

 [------------PM------------]
E----------------------------------------------------------------|
B----------------------------------------------------------------|
G-1010109-----10109-----109-\7-7-7/9-9-9/111111/121212/14p1214---|
D-0-0-0-0-0-0-0-0-0-0-0-0-0--0-0-0-0-0-0-0-0-0--0-0-0--0--0-0----|
A----------------------------------------------------------------|
E----------------------------------------------------------------|

 Rpt Riff A

 [--------------------PM------------------------]
E-------------------------------------------------------------|
B-------------------------------------------------------------|
G-1010109-----10109-----109-\2-2-2-2-2-2-2-2-2-2-2-2-2-2-2-2--|
D-0-0-0-0-0-0-0-0-0-0-0-0-0--0-0-0-0-0-0-0-0-0-0-0-0-0-0-0-0--|
A-------------------------------------------------------------|
E-------------------------------------------------------------|
[ Tab from: http://www.guitartabs.cc/tabs/s/suicidal_tendencies/war_inside_my_head_tab_ver_3.html ]
 Additional guitar                           Harmonics
E-------------------------------------------------------------|
B---------------------------------------------<5>------<7>----|
G------------------------------------------------<5>------<7>-|
D---------------------------------------------------<5>-------|
A-------------------------------------------------------------|
E-------------------------------------------------------------|

 Main / Verse Riff

      [--PM--]                   [--PM--]
E-----------------------------------------------------|
B-----------------------------------------------------|
G-----------------10--101010--------------------------|
D-9\7/9-------9-7/10--101010-9\7/9-------9-7/10-/12-0-|
A-7\5/7-------7-5/8---8-8-8--7\5/7-------7-5/8--/10---|
E-----0-0-0-0--------------------0-0-0-0--------------| Rpt 6 X

 Bridge
                  PM   PM
E----------------------------|
B----------------------------|
G------------11-11---11---11-|
D-7--7--7/10-11-11---11---11-|
A-7--7--7/10-9--9-99-9-99-9--|
E-5--5--5/8------------------| Rpt 4 X

 Chorus

E--------------------------------------------------|
B--------------------------------------------------|
G-8-----8----8/9---8-----8----8/9--6----6----6-9---|
D-9-----9----9/10--9-----9----9/10-7----7----7-10--|
A-9-----9----9/10--9-----9----9/10-7----7----7-10--|
E-7--77-7-77-7/8---7--77-7-77-7/8--5--5-5-55-5-8---|

E------------------------------------------------------------------|
B------------------------------------------------------------------|
G-8-----8----8/9--8-----8----8/9---8-----8----8/9--6----6----6-9---|
D-9-----9----9/10-9-----9----9/10--9-----9----9/10-7----7----7-10--|
A-9-----9----9/10-9-----9----9/10--9-----9----9/10-7----7----7-10--|
E-7--77-7-77-7/8--7--77-7-77-7/8---7--77-7-77-7/8--5--5-5-55-5-8---|


E-------------------------------------------------------|
B-------------------------------------------------------|
G-8-----8----8-8-141414\131313\121212\111111\101010\9-9-|
D-9-----9----9-9-141414\131313\121212\111111\101010\9-9-|
A-9-----9----9-9----------------------------------------|
E-7--77-7-77-7-7----------------------------------------|

 Rpt Main Riff 2 X
 Rpt Verse, Bridge and Chorus
 Rpt MAin Riff 2 X
 Rpt Verse 

 Backing for guitar solo

E-------------------------------|
B-------------------------------|
G-------------------------------|
D-7-7-7\6-6-6\5-5-5\4-4-4\1-----|
A-7-7-7\6-6-6\5-5-5\4-4-4\1-----|
E-5-5-5\4-4-4\3-3-3\2-2-2\1--0--| Rpt

E----------------------------------------------------------|
B----------------------------------------------------------|
G----------------------------------------------------------|
D-9-9-9\8-8-8\7----\6----\5-\4--9-9-9/10-/11-/12-/13-/14\--|
A-9-9-9\8-8-8\7----\6----\5-\4--9-9-9/10-/11-/12-/13-/14\--|
E-7-7-7\6-6-6\5----\4----\3-\2--7-7-7/8--/9--/10-/11-/12\--|

 Rpt Main Riff 2 X
 Rpt Verse, Bridge and Chorus.
 Rpt Main Riff 4 X

 Ending

  Guitar 1
E[-------------------------------------|
B[-------------------------------------|
G[-141414\131313\121212\111111\10--\9--|
D[-141414\131313\121212\111111\10--\9--|
A[-121212\111111\101010\9-9-9-\8----7--|
E[-------------------------------------|
 [
 [Guitar 2
E[-------------------------------------|
B[-141414\131313\121212\111111\10--\9--|
G[-------------------------------------|
D[-------------------------------------|
A[-------------------------------------|
E[-------------------------------------|

E-------------------------------------------------------------------|
B-------------------------------------------------------------------|
G-------------------------------------------------------------------|
D-------------------------------------------------------------------|
A-2-----------------------(2)------------------------------------2--|
E-0-----------------------(0)------------------------------------0--|



END
Comments