Suicidal Tendencies - Trip At The Brain Chords & Tabs

 

Trip At The Brain Chords & Tabs

Suicidal Tendencies Chords & Tabs

Version: 3 Type: Tab 0 ratings
1 star 2 stars 3 stars 4 stars 5 stars
comments

Trip At The Brain Tab

   
Band:  Suicidal Tendencies
Album: How Will I Laugh Tomorrow When I Can't Even Smile Today
Song:  Trip At The Brain

Copyright (c)  (Virgin) (1988)
Version 1.0 - (26/03/05)

Transcribed By: Steve
Email:          stephen.elvidge1@ntlworld.com


.  - palm mute           /  - slide up to
\  - slide down to       ~  - vibrato
h  - hammer on           b  - Bend
p  - pull off            Suffixes for bend
t  - tap                 f  - full bend    h - half bend
ph - pinched harmonic    q  - quarter bend t - tap bend
*  - see comment         ^  - Hold bend    r release bend
x  - Stuccatto           ~  - vibrato bend
,  - slight palm mute    () - ghost note, sustained note
"  - tremolo note        <> - Trill

Tunning E A D G B E
 

 Intro

 [---------PM------------]
E-------------------------------------|
B-------------------------------------|
G-------------------------------------|
D---4/5---5/5---6/7---7/8/9----(9)----|
A-4-2/3-5-3/4-6-4/5-7-5/6/7----(7)----|
E-2-----3-----4-----5-----------------|

 Main Riff

  Guitar 1
  [PM]   [PM] [PM]  [PM]  [PM]    [PM]  [PM]  PM    PM 
E[---------------------------------------------------------------|
B[---------------------------------------------------------------|
G[---------------------------------------------------------------|
D[-----5-----7-----8-----7-----5/7-----5-----7---8\7---5/7\5/7---|
A[-2-2-5-2-2-7-2-2-8-2-2-7-2-2-5/7-2-2-5-2-2-7---8\7---5/7\5/7---|
E[-0-0---0-0-5-0-0-6-0-0-5-0-0-3/5-0-0---0-0-5-0-6\5-0-3/5\3/5---|
 [
 [Guitar 2
 [[PM]                            [PM]              PM 
E[---------------------------------------------------------------|
B[---------------------------------------------------------------|
G[---------------------------------------------------------------|
D[-----------------------------------------------8\7---5/7\5/7---|
A[-2-2-----------------------------2-2-----------8\7---5/7\5/7---|
E[-0-0-----------------------------0-0-----------6\5-0-3/5\3/5---|

  Guitar 1
  [PM]   [PM] [PM]  [PM]  [PM]    [PM]  [PM]  PM      PM PM
E[---------------------------------------------------------------|
B[---------------------------------------------------------------|
G[---------------------------------------------------------------|
D[-----5-----7-----8-----7-----5/7-----5-----7---12\11--9---10---|
A[-2-2-5-2-2-7-2-2-8-2-2-7-2-2-5/7-2-2-5-2-2-7---10\9---7---8----|
E[-0-0---0-0-5-0-0-6-0-0-5-0-0-3/5-0-0---0-0-5-0------0---0------|
 [
 [Guitar 2
 [[PM]                            [PM]                PM PM
E[---------------------------------------------------------------|
B[---------------------------------------------------------------|
G[---------------------------------------------------------------|
D[-----------------------------------------------12\11--9---10---|
A[-2-2-----------------------------2-2-----------10\9---7---8----|
E[-0-0-----------------------------0-0----------------0---0------|


 [PM]   [PM] [PM]  [PM]  [PM]    [PM]  [PM]  PM    PM 
E---------------------------------------------------------------|
B---------------------------------------------------------------|
G---------------------------------------------------------------|
D-----5-----7-----8-----7-----5/7-----5-----7---8\7---5/7\5/7---|
A-2-2-5-2-2-7-2-2-8-2-2-7-2-2-5/7-2-2-5-2-2-7---8\7---5/7\5/7---|
E-0-0---0-0-5-0-0-6-0-0-5-0-0-3/5-0-0---0-0-5-0-6\5-0-3/5\3/5---|
[ Tab from: http://www.guitartabs.cc/tabs/s/suicidal_tendencies/trip_at_the_brain_tab_ver_3.html ]
 [PM]   [PM] [PM]  [PM]  [PM]    [PM]  [PM]  PM      PM PM
E---------------------------------------------------------------|
B---------------------------------------------------------------|
G---------------------------------------------------------------|
D-----5-----7-----8-----7-----5/7-----5-----7---12\11--9---10---|
A-2-2-5-2-2-7-2-2-8-2-2-7-2-2-5/7-2-2-5-2-2-7---10\9---7---8----|
E-0-0---0-0-5-0-0-6-0-0-5-0-0-3/5-0-0---0-0-5-0------0---0------|
                                                          Rpt

 Chorus
 [-PM-]      [-PM-]       [-PM-]      [-PM-]   
E--------------------------------------------------|
B--------------------------------------------------|
G--------------------------------------------------|
D-------5\2/5-------5-7/8-------5\4/5-------8\7\5--|
A-2-2-2-5\2/5-2-2-2-5-7/8-2-2-2-5\4/5-2-2-2-8\7\5--|
E-0-0-0-3\2/3-0-0-0-3-5/6-0-0-0-3\2/3-0-0-0-6\5\3--| Rpt

 Rpt Verse
 Rpt Chorus

 Interlude

E---------------|
B---------------|
G---------------|
D---------5---\-|
A-5---2---3---\-|
E-3---0---------|

 [-PM-]       [-PM-] 
E-------------------------|
B-------------------------|
G-------------------------|
D-------5\2/5-------5-7/8-|
A-2-2-2-5\2/5-2-2-2-5-7/8-|
E-0-0-0-3\2/3-0-0-0-3-5/6-|

E---------------|
B---------------|
G---------------|
D---------3---\-|
A-5---2---1---\-|
E-3---0---------|

 Rpt Main Riff 2 X for solo backing.
 Rpt Chorus 
 Rpt Interlude
 Rpt Verse
 Rpt Chorus
 Rpt Interlude
                                                 Trem Dive
E-------------------------------------------------------------------|
B-------------------------------------------------------------------|
G-------------------------------------------------------------------|
D-3------------------------(3)--------------------------------------|
A-1------------------------(1)--------------------------------------|
E-------------------------------------------------------------------|

    PM             [PM]   [PM]  [PM]    [PM] 
E--------------------------------------------|
B--------------------------------------------|
G--------------------------------------------|
D-5--4--4------------------------------------|
A-3--0--2---5-\4-2-2-2-2--2-2-2--2-2-2--2-2--|
E-----------3-\2-0-0-0-0--0-0-0--0-0-0--0-0--| Rpt 6 X

    PM             
E--------------------------------------------|
B--------------------------------------------|
G--------------------------------------------|
D-5--4--4------------------------------------|
A-3--0--2---5-\4-2---------(2)---------------|
E-----------3-\2-0---------(0)---------------| Rpt 3 X

    PM             [PM]   [PM]  [PM]    [PM] 
E--------------------------------------------|
B--------------------------------------------|
G--------------------------------------------|
D-5--4--4------------------------------------|
A-3--0--2---5-\4-2-2-2-2--2-2-2--2-2-2--2-2--|
E-----------3-\2-0-0-0-0--0-0-0--0-0-0--0-0--| Rpt 2 X

 [-------PM--------]    [------------PM-------------]    
E----------------------------------------------------|
B----------------------------------------------------|
G----------------------------------------------------|
D-5-5-5-5-4-4-4-4-4----------------------------------|
A-3-3-3-3-0-2-2-2-2-5-\4-2-2-2-2-2-2-2-2-2-2-2-2-2-2-|
E-------------------3-\2-0-0-0-0-0-0-0-0-0-0-0-0-0-0-|

    [PM]        [------------PM-------------]   
E--------------------------------------------|
B--------------------------------------------|
G--------------------------------------------|
D-5--4-4-4-----------------------------------|
A-3--0-0-2---5\4-2-2-2-2-2-2-2-2-2-2-2-2-2-2-|
E------------3\2-0-0-0-0-0-0-0-0-0-0-0-0-0-0-| Rpt 6 X
 


    [PM]
E-----------------|
B-----------------|
G-----------------|
D-5--4-4-4--------|
A-3--0-0-2---5\4--|
E------------3\2--|
 [PM]  [PM]  [PM]  [PM]   [PM]
E---------------------------------|
B---------------------------------|
G---------------------------------|
D-----5-----7-----8-----7-----5-7-|
A-2-2-5-2-2-7-2-2-8-2-2-7-2-2-5-7-|
E-0-0---0-0---0-0---0-0---0-0-----|Rpt 3 X

 [PM]  [PM]  [PM]     PM   
E-----------------------------------|
B-----------------------------------|
G-------------------------------9\--|
D-----5-----7-----8\7---5/7\5/7-9\--|
A-2-2-5-2-2-7-2-2-8\7---5/7\5/7-7\--|
E-0-0---0-0---0-0-6\5-0-3/5\3/5-----|




END
Comments